Song name
# A B C D E F G H I J K L M N O P Q R S T U V W X Y Z

Hostage Calm - Affidavit tab

Hostage Calm
"Affidavit"
Self-Titled (Run For Cover)
www.myspace.com/hostagecalmct

Too lazy to do a the chord rhythms. Sorry. You're probably a talented musician -- you 
it out. Questions: mikexdude@gmail.com

Left Speaker:

Intro/Verse 1

|------4-----------4----------4----------4--------|
|--4-----4-----4-----4-----4---------4-----4------|
|----4-----4-----4-----4-----4---------4----------|
|-4-----------3----------2-------------------//---| (pick slide)
|-------------------------------0-2-4--------//---|
|-------------------------------------------------|

                           1.          2.
|-------------------------------------|-------------|
|-------------------------------------|-------------|
|-4-4-4-4-4-4-4-4-8-8-9-9-9----------.|-10~---------|
|-x-x-x-x-x-x-x-x-9-9-9-9-9-9------9-.|-8~----------|
|-2-2-2-2-4-4-4-4-7-7-7-7-7-7------7--|-9~----------|
|---------------------------5-5555-5--|-------------|
PM                            ....

Chorus 1

|-------------------4-4-4----------------------------|
|-------------4-4-4-5-5-5----------------------------|
|-6-6-6-6-6-6-4-4-4-6-6-6-2-2-2-2-2-3-3-3-3-3--------|
|-6-6-6-4-4-4-4-4-4-6-6-6-2-2-2-2-2-4-4-4-4-4--------|
|-4-4-4-6-6-6-x-x-x-4-4-4-0-0-0-0-0-4-4-4-4-4--------|
|-------------4-4-4-----------------2-2-2-2-2--------|

|------------------------------------------------4-----9~----|
|----------------------------------------x-x-----5-9---10~---|
|----1-1-1-1-1----1-1-1-1-1----1-1-1-1-1-x-x-2-4-6-9-4-11~---|
|----2-2-2-2-2----2-2-2-2-2----2-2-2-2-2-x-x-2-4-6-9-4-11~---|
|---------------------------0~-----------x-x-0-2-4-7-2-9~----|
|-0~-----------2~------------------------x-x-----------------|

Intro/Verse 2

|------4-----------4----------4----------4--------|
|--4-----4-----4-----4-----4---------4-----4------|
|----4-----4-----4-----4-----4---------4----------|
|-4-----------3----------2-------------------//---| (pick slide)
|-------------------------------0-2-4--------//---|
|-------------------------------------------------|


|-------------------------------------|
|-------------------------------------|
|-4-4-4-4-4-4-4-4-8-8-9-9-9/-9-9-9-9--|
|-x-x-x-x-x-x-x-x-9-9-9-9-9-/9-9-9-9--|
|-2-2-2-2-4-4-4-4-7-7-7-7-7-/7-7-7-7--|
|-------------------------------------|

|---------------------------|
|---------------------------|
|-----------------------10~-|
|-9------9-9---------x3--8~-|
|-7------7-7-------------9~-| (pick slide)
|-5-5555-5-5-4~-4~-4~-------|
PM  ....

Chorus 2

|-------------------4-4-4----------------------------|
|-------------4-4-4-5-5-5----------------------------|
|-6-6-6-6-6-6-4-4-4-6-6-6-2-2-2-2-2-3-3-3-3-3--------|
|-6-6-6-4-4-4-4-4-4-6-6-6-2-2-2-2-2-4-4-4-4-4--------|
|-4-4-4-6-6-6-x-x-x-4-4-4-0-0-0-0-0-4-4-4-4-4--------|
|-------------4-4-4-----------------2-2-2-2-2--------|

|---------4-----------4-|-9--9-----------|
|---------5-4-2-2-2-9-5-|-10-10----------|
|-6-------6-5-2-2-2-9-6-|-11-11----------|
|-4--2----6-6-2-2-2-9-6-|-11-11------x4--|
|-6--2----4-6-0-0-0-7-4-|-9--9--9999-----|
|----0------4-----------|----------------|PM                              ....

Outro

|--------------------------------4--|---------------------||
|-5-5-5p4p5-5-5-5p4h5------------5--|-5~-4~-/7-5-4-5-4-4~-||
|-6-6-6-6-6-6-6-6-6-6-8-8-8h9-1--6-.|-4~-4~------------6~-||
|-6-6-6-6-6-6-6-6-6-6-9-9-9-9-11-6-.|------------------6~-||
|-4-4-4-4-4-4-4-4-4-4-7-7-7-7-9--4--|------------------4~-||
|-----------------------------------|---------------------||

Right Speaker:

Intro/Verse 1

|----------|--------------------|
|----------|--------------------|
|----------|-2-4-6~-------------|
|----------|-2-4-6~-------------|
|----------|-0-2-4~-------------|
|----------|--------------------|

                           1.                   2.
|---------------------------------------------|-------------|
|-----------------------------------------9~--|-------------|
|-4-4-4-4-4-4-4-4-8-8-9-9-9---------------9~-.|-10~---------|
|-x-x-x-x-x-x-x-x-9-9-9-9-9-9------9--/11----.|-8~----------|
|-2-2-2-2-4-4-4-4-7-7-7-7-7-7------7----------|-9~----------|
|---------------------------5-5555-5----------|-------------|
PM                            ....

Chorus 1

|-------------------4-4-4----------------------------|
|-------------4-4-4-5-5-5----------------------------|
|-6-6-6-6-6-6-4-4-4-6-6-6-11-9-9-8-9----11-13-13-----|
|-6-6-6-4-4-4-4-4-4-6-6-6-x--x-x-x-x-9/-x--x--x------|
|-4-4-4-6-6-6-x-x-x-4-4-4-9--7-7-6-7-x/-9--11-11-----|
|-------------4-4-4------------------7/--------------|

|------------------------------------------------4-----9~----|
|----------------------------------------x-x-----5-9---10~---|
|----1-1-1-1-1----1-1-1-1-1----1-1-1-1-1-x-x-2-4-6-9-4-11~---|
|----2-2-2-2-2----2-2-2-2-2----2-2-2-2-2-x-x-2-4-6-9-4-11~---|
|---------------------------0~-----------x-x-0-2-4-7-2-9~----|
|-0~-----------2~------------------------x-x-----------------|

Intro/Verse 2

|-------------|--------------------|
|----9~-------|--------------------|
|----9~-------|-2-4-6~-------------|
|-/11---------|-2-4-6~-------------|
|-------------|-0-2-4~-------------|
|-------------|--------------------|


|-------------------------------------|
|-------------------------------------|
|-4-4-4-4-4-4-4-4-8-8-9-9-9/-9-9-9-9--|
|-x-x-x-x-x-x-x-x-9-9-9-9-9-/9-9-9-9--|
|-2-2-2-2-4-4-4-4-7-7-7-7-7-/7-7-7-7--|
|-------------------------------------|

|---------------------------|
|---------------------------|
|-----------------------10~-|
|-9------9-9---------x3--8~-|
|-7------7-7-------------9~-| (pick slide)
|-5-5555-5-5-4~-4~-4~-------|
PM  ....

Chorus 2

|-------------------4-4-4----------------------------|
|-------------4-4-4-5-5-5----------------------------|
|-6-6-6-6-6-6-4-4-4-6-6-6-11-9-9-8-9----11-13-13-----|
|-6-6-6-4-4-4-4-4-4-6-6-6-x--x-x-x-x-9/-x--x--x------|
|-4-4-4-6-6-6-x-x-x-4-4-4-9--7-7-6-7-x/-9--11-11-----|
|-------------4-4-4------------------7/--------------|


(lead)
|------------------------------------------|
|------------------------------------------|
|-6-666h8-4/1~-4/1~-8-6-6/1-5/1~-----------|
|------------------------------------------|
|------------------------------------------|
|------------------------------------------|

|---------4-----------4-|-9--9-----------|
|---------5---------9-5-|-10-10----------|
|---------6---2-2-2-9-6-|-11-11----------|
|-(lead)--6-6-2-2-2-9-6-|-11-11------x4--|
|---------4-6-0-0-0-7-4-|-9--9--9999-----|
|-----------4-----------|----------------|PM                              ....

Outro (strum octvaves, except for the last two. not sure if that last octave is even correct.)

|-------------|------------------------||
|-------------|------------------------||
|-/13-9-11-6-.|-9~-6~------------------||
|-/x--x-x--x-.|-x~-x~------------------||
|-/11-7-9--4--|-7~-4~------------------||
|-------------|------------------------||

Cheers!

- Mike
Tap to rate this tab
# A B C D E F G H I J K L M N O P Q R S T U V W X Y Z