Song name
# A B C D E F G H I J K L M N O P Q R S T U V W X Y Z

Hostage Calm - Where The Waters Call Home tab

Hostage Calm
"Where the Waters Call Home"
Self-Titled (Run For Cover)
www.myspace.com/hostagecalmct

Tabbed off the Punknews.org stream of their new album, so the multiple guitar
parts aren't very distinguishable.

Tuned a half step down.

www.punknews.org/bands/hostagecalm LISTEN HERE THEN PRE-ORDER/BUY!

Questions/corrections: mikexdude@gmail.com

Intro
         x4 1.         2.           3.         4.
|---------|------------------------------------------------|
|---------|------------------------------------------------|
|---------|--------------------------------------------4---|
|-----4-0-|-----4-0--------4-0----------4-0--------4-0-2---|
|---2-----|---2-----3~---2-----3-------2----3~---2-----3---|
|-0-------|-0----------0---------1~--0---------0-----------|

Other guitar

|-0-0-0-0--0--0-------0--0------0--0-0000-0-0-0-0-0-0-0-0-0-----|
|-7-5-0-3--5--12br12b-12-12br12-10-5-8888-7-5-0-0-0-0-0-0-0-----|
|---------------------------------------------4-4-9-4-7-9-7-----|
|---------------------------------------------------------------|
|---------------------------------------------------------------|
|---------------------------------------------------------------|

Other other guitar (tremolo pick the note(s) + PM/eventually let up on the PM)

|-0-------------------------------------------------------------|
|-5---10--------------------------------------------------------|
|---------------------------------------------------------------|
|---------------------------------------------------------------|
|---------------------------------------------------------------|
|---------------------------------------------------------------|

Piano arranged for guitar

|-^17-----------|
|-^17-----------|
|-^16-----------|
|---------------|
|---------------|
|---------------|

Verse (probably not all correct, hard to hear on the possibly mono stream)

                1,3                  2.
|-------/15-12~----------7----------|-------------------------------|
|------------------------5----------|--10/8-12-12/15-12-17----------|
|-2-4-4----------12-12-9-5---------.|--x--x-x--x--x--x--x-----------|
|-0-0-2----------0--0--0-5-2-5-4---.|--7/-5-9--9/-12/9/-14----------|
|-x-x-3--------------------0-0-0----|-------------------------------|
|-3-3-------------------------------|-------------------------------|

|----------------------|
|------------7----7----|
|-9----------9------9--|
|-7----(etc)-8-------8-|
|-9-99-------9-99------|
|----------------------|
pm  ..         ..

Chorus (acoustic guitar strumming the chords in the background)

|-------------------------------------------|
|------------------------5------------------|
|--------------7-4-----7-7-10-10-5-5--------|
|-5--9--7--5-9-x-x---5-7-6-10-10-5-5-5------|
|-5--9--7--5-9-5-2---5-5-7-8--8--3-3-5------|
|-3--7--5--3-7-----0-3---------------3------|
pm                 .

Verse

Chorus

Intro

Breakdown

Guitar

|-----------------------------------------------------------------|
|------------------------5----------------------------------------|
|-14-11--11-7--2-4--2-4h7----------7-9-9h7------------------------|
|-9--9---7--7--5-5--5------x8--7-9---------9----------------------|
|-----------------------------------------------------------------|
|-----------------------------------------------------------------|

Other guitar (comes in after the first guitar plays like four times)

|-----------------------------------------------------------------|
|-----------------------------------------------------------------|
|-6-6--6-7--2-4-2-------------------------------------------------|
|-4-4--0-0--0-0-0------2---------0-2-2h0--------------------------|
|-2-2-------x-x-x--2h5---x4--0-2---------2------------------------|
|-----------3-3-3-------------------------------------------------|

Bridge

|-------3-3-3-3----------------5--------------------------------|
|-------3-3-3-3-7-7-8-7~-7-5-7---7h5----------------------------|
|-12-12-4-4-4-4-7-7------4-----------11-11----/9-----/11----12--|
|-12-12-5-5-5-5-7-7------5-----------9--9---5----9-8-----11-12--|
|-10-10-5-5-5-5-5-5------------------11-11------------------10--|
|-------3-3-3-3-------------------------------------------------|

Outro

|---------------------------------------------------------------------|
|---------------------------------------------5-5---------------------|
|------11-9-7-9-11-9------------------7-4-----7-7-10-10-5-5-----------|
|-5--9-x--x-x-x-x--x-----------7--5-9-x-x---5-7-6-10-10-5-5-5---------|
|-5--9-9--7-5-7-9--7-----------7--5-9-5-2---5-5-7-8--8--3-3-5---------|
|-3--7-------------------------5--3-7-----0-3---------------3---------|
pm                                        .
Tap to rate this tab
 
# A B C D E F G H I J K L M N O P Q R S T U V W X Y Z