Song name
# A B C D E F G H I J K L M N O P Q R S T U V W X Y Z

Hostage Life - Committee tab

I only spent about 30minutes tabbing this out, and its my first tab, so might not be 
but its pretty close.  Email me if you have any questions...t_lane_is_fukin_awesome@hotmail.com


-------------------------------------------------------------------|
-------------------------------------------------------------------|
-7--7--7-7-7---11-9--7-7-7-7-------9--9--9-9-9---12-12-12-11-9-9-9-|
-x--x--x-x-x---x--x--x-x-x-x-------x--x--x-x-x---x--x--x--x--x-x-x-|
-5--5--5-5-5---9--7--5-5-5-5-------7--7--7-7-7---10-10-10-9--7-7-7-|
-------------------------------------------------------------------|

-----------------------------------------------------|
-----------------------------------------------------|
-7-/-9---9-9-9-9-----16-16-16-12-11-11-11---14-------|
-x---x---x-x-x-x-----x--x--x--x--x--x--x----x-<--x14-|
-5-/-7---7-7-7-7-----14-14-14-10-9--9--9----12-------|
-----------------------------------------------------|

---p.o.-----------      ---p.o.-----------|
-15---12--p.o.----x8    -17---14--p.o.----|x8
------- 14---12---      --------16---14---|
------------------      ------------------|
------------------      ------------------|
------------------      ------------------|


   h.o.
-12---15--h.o.--      --17-- <----| bend
--------12---14-x8    ------------|
----------------      ------------|
----------------      ------------|
----------------      ------------|
----------------      ------------|
Tap to rate this tab
# A B C D E F G H I J K L M N O P Q R S T U V W X Y Z