Song name
# A B C D E F G H I J K L M N O P Q R S T U V W X Y Z

Hot Action Cop - In A Little While tab

	In A Little While


E-------------------------------------------|
B--7-7-----10----3-3\0----------------------|
G---0--------0----0-------------------------|
D-------------------------------------------|
A--5-5--------0--2-2------------------------|
E-------7--9--------------------------------|

E-------------------------------------------|
B-------------------------------------------|
G----0------4-----6-------------------------|
D-----2----0-----0--------------------------|
A-------------------------------------------|
E--2-0-0/3----3/5---------------------------|

E-------------------------------------------|
B-------------0-----------------------------|
G----------2--------------------------------|
D--------------------0----------------------|
A--------0--0---0/2-------------------------|
E---5\0-------------------------------------|
Tap to rate this tab
 
# A B C D E F G H I J K L M N O P Q R S T U V W X Y Z