Song name
# A B C D E F G H I J K L M N O P Q R S T U V W X Y Z

Hot Action Cop - Club Slut Acoustic tab

This is my First tab i used this http://www.youtube.com/watch?v=xrr64cnTnic
and played by ear. Its pretty simple to pick up the only harder part is the 
solo but i think he improvised that at the end of the first two parts. I couldn't 
really hear/see the last fast part but Let me know what you think.

Intro/Verse
e--------------------------------------|
b---------------------0----------------|
g------0-------------4-----------------|
d-----4----------0h2-------------------|
a-0h2----------------------------------|
E--------------------------------------|

Chorus
Part One
e--------------------------------------|
b--------------------------------------|
g--------------------------------------|
d--2--3--2-----------------------------|
a--2--3--2-----------------------------|
E--0--1--0-------12\0----------------x4|

Part Two

e--------------------------------------|
b--------------------------------------|
g--------------------------------------|
d--2-5-4--5--4--------3-3-3-3-3---3----|
a--2-5-4--5--4--x3----3-3-3-3-3---3----|
E--0-3-2--3--2--------1-1-1-1-1---1----|

Pre-bridge

e------------------------------------------------------|
b------------------------------------------------------|
g------------------------------------------------------|
d--2--3--2----2-2---2-------------2-2-3--3-3-2--223/5--|
a--2--3--2----2-2---2-------------2-2-3--3-3-2--223/5--|
E--0--1--0----0-0---0--12\0-------0-0-1--1-1-0--001/3--|

Verse
e--------------------------------------|
b---------------------0----------------|
g------0-------------4-----------------|
d-----4----------0h2-------------------|
a-0h2----------------------------------|
E--------------------------------------|

e------------------------------------------------------|
b------------------------------------------------------|
g------------------------------------------------------|
d--2--3--2----2-2---2-------------2-2-3--3-3-2--223/5--|
a--2--3--2----2-2---2-------------2-2-3--3-3-2--223/5--|
E--0--1--0----0-0---0--12\0-------0-0-1--1-1-0--001/3--|


Solo (lead part)

e--------------------------------------|
b--------------------------------------|
g--------------------------------------|
d----9-10-x-8-89-x89-----9-10-x-8-89-9-|
a--7-------------------7---------------|
E--------------------------------------|

e-------------------------------------------------|
b-------------------------------------------------|
g-------------------------------------------------|
d--2--3--2----------------2-2-3--3-3-2--223/5-----|
a--2--3--2----------------2-2-3--3-3-2--223/5-----|
E--0--1--0-------12\0-----0-0-1--1-1-0--001/3---x2|

e--------------------------------------|
b---------------------0----------------|
g------0-------------4-----------------|
d-----4----------0h2-------------------|
a-0h2----------------------------------|
E------------------------------------x6|

e--------------------------------------|
b--------------------------------------|
g--------------------------------------|
d--2--3--2-----------------------------|
a--2--3--2-----------------------------|
E--0--1--0-------12\0----------------x4|

e--------------------------------------|
b--------------------------------------|
g--------------------------------------|
d--2-5-4--5--4--------3-3-3-3-3---3----|
a--2-5-4--5--4--x3----3-3-3-3-3---3----|
E--0-3-2--3--2--------1-1-1-1-1---1----|


e------------------------------------------------------|
b------------------------------------------------------|
g------------------------------------------------------|
d--2--3--2----2-2---2-------------2-2-3--3-3-2--223/5--|
a--2--3--2----2-2---2-------------2-2-3--3-3-2--223/5--|
E--0--1--0----0-0---0--12\0-------0-0-1--1-1-0--001/3--|

e--------------------------------------|
b--------------------------------------|
g--------------------------------------|
d--2--3--2-----------------------------|
a--2--3--2-----------------------------|
E--0--1--0-----------------------------|

The End
Tap to rate this tab
 
# A B C D E F G H I J K L M N O P Q R S T U V W X Y Z