Song name
# A B C D E F G H I J K L M N O P Q R S T U V W X Y Z

Hot Action Cop - Dont Want Her To Stay tab

-------------------------------------------------------------------------------
			     Don't Want her to Stay - Hot Action Cop
-------------------------------------------------------------------------------
Tabbed by: Danelg
Email:Danne.Richter@gmail.com

Tuning:Standard (EADGBe)

Intro
e|--12-----------------------------------------------------------------------|
B|--12--Repeat---------------------------------------------------------------|
G|--12-----------------------------------------------------------------------|
D|---------------------------------------------------------------------------|
A|---------------------------------------------------------------------------|
E|---------------------------------------------------------------------------|

e|------------------------------|
B|------------------------------|
G|--------------6-6-6-6-6-6--4--|
D|-2--2-2-2--4--6-6-6-6-6-6--4--|  x4
A|-2--2-2-2--4--4-4-4-4-4-4--2--|
E|-0--0-0-0--2------------------|


Number of strokes isn't correct, they're there just to get a hang of it.
play mostly on the higher strings, G B and e strings.
Vers 1
    E		     C#m	     B		    E5  F#5
e|--7--7-7-7-7-7-----4--4-4-4-4-4----2--2-2-2-2-2-----------|
B|--9--9-9-9-9-9h10--5--5-5-5-5-5-7--4--4-4-4-4-4-----------|
G|--9--9-9-9-9-9-----6--6-6-6-6-6----4--4-4-4-4-4--------4--|
D|--9--9-9-9-9-9-----6--6-6-6-6-6----4--4-4-4-4-4---2----4--| x2
A|--7--7-7-7-7-7-----4--4-4-4-4-4----2--2-2-2-2-2---2----2--|
E|--------------------------------------------------0-------|


Pre-Chorus
    A2	 B2
e|-------------------------------------------------------------------------------|
B|--0----------------------------------------------------------------------------|
G|--2-----4----------------------------------------------------------------------|
D|--2-----4----------------------------------------------------------------------|
A|--0-----2----------------------------------------------------------------------|
E|-------------------------------------------------------------------------------|

Chorus
   A2	  B2
e|-------------------------------------------------------------------------------|
B|--0----------------------------------------------------------------------------|
G|--2-----4----------------------------------------------------------------------|
D|--2-----4----------------------------------------------------------------------|
A|--0-----2----------------------------------------------------------------------|
E|-------------------------------------------------------------------------------|


Vers 2: same as Vers 1 but wtih second guitar playing around, don't know what :D
    E		     C#m	     B		    E5  F#5
e|--7--7-7-7-7-7-----4--4-4-4-4-4----2--2-2-2-2-2-----------|
B|--9--9-9-9-9-9h10--5--5-5-5-5-5-7--4--4-4-4-4-4-----------|
G|--9--9-9-9-9-9-----6--6-6-6-6-6----4--4-4-4-4-4--------4--|
D|--9--9-9-9-9-9-----6--6-6-6-6-6----4--4-4-4-4-4---2----4--| x2
A|--7--7-7-7-7-7-----4--4-4-4-4-4----2--2-2-2-2-2---2----2--|
E|--------------------------------------------------0-------|

Pre-Chorus
    A2	 B2
e|------------|
B|--0---------|
G|--2-----4---|
D|--2-----4---| PAuse
A|--0-----2---|
E|------------|

Chorus
   A2	  B2
e|-------------|
B|--0----------|
G|--2-----4----|
D|--2-----4----| x3
A|--0-----2----|
E|-------------|

Post-Chours
e|------------------------------|
B|------------------------------|
G|--------------6-6-6-6-6-6--4--|
D|-2--2-2-2--4--6-6-6-6-6-6--4--|  x4
A|-2--2-2-2--4--4-4-4-4-4-4--2--|
E|-0--0-0-0--2------------------|

Bridge
e|-------------|
B|--0----------|
G|--2-----4----|
D|--2-----4----| x4
A|--0-----2----|
E|-------------|

Vers3
    E		     C#m	     B		    E5  F#5
e|--7--7-7-7-7-7-----4--4-4-4-4-4----2--2-2-2-2-2-----------|
B|--9--9-9-9-9-9h10--5--5-5-5-5-5-7--4--4-4-4-4-4-----------|
G|--9--9-9-9-9-9-----6--6-6-6-6-6----4--4-4-4-4-4--------4--|
D|--9--9-9-9-9-9-----6--6-6-6-6-6----4--4-4-4-4-4---2----4--| x1 a bit slower at the end
A|--7--7-7-7-7-7-----4--4-4-4-4-4----2--2-2-2-2-2---2----2--|
E|--------------------------------------------------0-------|

Chorus
   A2	  B2
e|-------------|
B|--0----------|
G|--2-----4----|
D|--2-----4----| x4
A|--0-----2----|
E|-------------|

Outro (same as intro and post-chorus)
e|------------------------------|
B|------------------------------|
G|--------------6-6-6-6-6-6--4--|
D|-2--2-2-2--4--6-6-6-6-6-6--4--|  x4
A|-2--2-2-2--4--4-4-4-4-4-4--2--|
E|-0--0-0-0--2------------------|

************************************

| /   slide up
| \   slide down
| h   hammer-on
| p   pull-off
| ~   vibrato
| +   harmonic
| x   Mute note
| b   Bend
| pb  Pre-bend
| br  Bend release
| pbr Pre-bend release
| brb Bend release bend

************************************
Tap to rate this tab
# A B C D E F G H I J K L M N O P Q R S T U V W X Y Z