Song name
# A B C D E F G H I J K L M N O P Q R S T U V W X Y Z

Hot Action Cop - Club Slut tab

I worked this from ear and it's my first tab so no abuse please!

Intro/Verse
e--------------------------------------|
b---------------------5----------------|
g------5-------------4-----------------|
d-----4----------0h2-------------------|
a-0h2----------------------------------|
E--------------------------------------|

Chorus
Part One
e--------------------------------------|
b--------------------------------------|
g--------------------------------------|
d--2--3--0----2-2---2------------------|
a--2--3--2----2-2---2------------------|
E--0--1--2----0-0---0--12\0------------|

Part Two

e--------------------------------------|
b--------------------------------------|
g--------------------------------------|
d--2-5-4--4--4--------3-3-3-3-3---3----|
a--2-5-4--4--4--x3----3-3-3-3-3---3----|
E--0-3-2--2--2--------1-1-1-1-1---1----|

Pre-bridge

e------------------------------------------------------|
b------------------------------------------------------|
g------------------------------------------------------|
d--2--3--0----2-2---2-------------2--3--2----2-3---3-4-|
a--2--3--2----2-2---2-------------2--3--2----2-3---3-4-|
E--0--1--2----0-0---0--12\0-------0--1--0----0-1---1-2-|

Solo (lead part)

e--------------------------------------|
b--------------------------------------|
g--------4--5----3----3h4-----3h4------|
d-----22--2---22---22------22----------|
a--------------------------------------|
E--------------------------------------|


Intro/Verse x 8
Chorus (part one) x 4
Part two x 1
Verse x 5
Chorus Part One x 4
Part Two x 2
Pre-bridge x 2
Solo x 12
Pre-bridge x 2
Intro x 8
Chorus (part one) x 4
Part two x 1
Chorus (part one) x 4
Part two x 1
Pre-bridge

There are slight variations but they are just powerchords, I've tabbed the stuff that 
cause confusion.
Tap to rate this tab
 
# A B C D E F G H I J K L M N O P Q R S T U V W X Y Z