Song name
# A B C D E F G H I J K L M N O P Q R S T U V W X Y Z

Hot Chelle Rae - Bleed chords

Highlighted       Show chord diagrams
Artist: Hot Chelle Rae
Song: Bleed
Album: Lovesick Electric
Tabbed by: gustavoaraujo999@hotmail.com

**This tab is basically the first "Bleed Chords", but without a capo and some 
minor changes I made.
**The A chord is not actually there, but I like to play it.

Chords used:
Bm - 224432 / 799777
G  - 355433 / 320033
D  - x57755 / xx0232
A  - 577655 / 002220
(The first chords are the ones I use, the other ones are a variation)

[Intro]
Bm    G    D (x2)

[Verse 1]
Bm               G               D     
 I feel like I'm drowning in ice water
Bm            G                 D
 My lips have turned a shade of blue
Bm          G
 I'm frozen with this fear
D             (A)
 That you may disappear
Bm           G             D
 Before I've given you the truth
 

[Chorus]
Bm          G                 D
 I bleed my heart out on this paper for you
Bm          G                D
 So you can see what I can't say
Bm              G
 I'm dying here (I'm dying here)
D              (A)
 'Cause I can't say what I want to
Bm          G                  D
 I bleed my heart out just for you

 Bm          G           D                 Bm         G               D
e|-----------|-----------|-----------------|----------|---------------|
B|-----------|-----------|----10---8--7----|----------|--8--7---------|
G|----99-77--|---99--77--|--7----7------9--|----9--7--|-------9--7-6b-|
D|-77--------|-77--------|-----------------|--7-------|---------------|
A|-----------|-----------|-----------------|----------|---------------|
E|-----------|-----------|-----------------|----------|---------------|


[Verse 2]
Bm           G                  D
 I've always dreamed about this moment
Bm            G                       D
 And now it's here and I've turned to stone
Bm            G
 I stand here petrified
D             (A)
 As I look you in your eyes
Bm          G        D
 My head is ready to explode
 

[Chorus]
Bm          G                 D
 I bleed my heart out on this paper for you
Bm          G                D
 So you can see what I can't say
Bm              G
 I'm dying here (I'm dying here)
D              (A)
 'Cause I can't say what I want to
Bm          G                  D
 I bleed my heart out just for you

 
[Bridge]
D
 And it's all here in
G                        Bm         D
     Black and white and red
D
 For all the times
       G                Bm        G
 Those words were never said


[Chorus]
Bm          G                 D
 I bleed my heart out on this paper for you
Bm          G                D
 So you can see what I can't say
Bm              G
 I'm dying here (I'm dying here)
D              (A)
 'Cause I can't say what I want to
Bm          G                  D
 I bleed my heart out just for you
Bm          G                  D
 I bleed my heart out just for you


[Outro]
 Bm          G           D                 Bm         G               D
e|-----------|-----------|-----------------|----------|---------------|
B|-----------|-----------|----10---8--7----|----------|--8--7---------|
G|----99-77--|---99--77--|--7----7------9--|----9--7--|-------9--7-7~-|
D|-77--------|-77--------|-----------------|--7-------|---------------|
A|-----------|-----------|-----------------|----------|---------------|
E|-----------|-----------|-----------------|----------|---------------|
Tap to rate this tab
 
# A B C D E F G H I J K L M N O P Q R S T U V W X Y Z