Song name
# A B C D E F G H I J K L M N O P Q R S T U V W X Y Z

Hot Chelle Rae - Never Have I Ever tab

Artist: Hot Chelle Rae
Song: Never Have I Ever
Album: Lovesick Electric
Tabbed by: gustavoaraujo999@hotmail.com

[Intro]
e|-----------------------|-------------------------|
B|------12---10----------|------12----10----9-10---|
G|---11----11----11-9----|---11----11----11--------|
D|-9------------------11-|-9-----------------------|
A|-----------------------|-------------------------|
E|-----------------------|-------------------------|

I don't know exactly, but the verse is something like.
e|------------------------------------------------------------------|
B|-10-9-10----------------------------------------------------------|
G|---------11-9-11--------------------------------------------------|
D|------------------------------------------------------------------|
A|------------------------------------------------------------------|
E|------------------------------------------------------------------|

Anything wrong, email me.
Tap to rate this tab
 
# A B C D E F G H I J K L M N O P Q R S T U V W X Y Z