Song name
# A B C D E F G H I J K L M N O P Q R S T U V W X Y Z

Hot Chelle Rae - Bleed tab

Tabbed By: Jess Palko

** Tuning: DADGAd **


Okay, so I see many tabs/chords for this song that are so WRONG.
This song is not played "Bm, G, D" in standard tuning. It sounds wrong, and it took me 
forever to figure out how it's actually played, because none of the tabs/chords were right.
These are CORRECT!
By the way, this is my first tab..I hated how all the tabs on the Internet were wrong 
for this song, so I figured I'd put the right ones up.

** Listen to the song for the strum pattern, or check out my video on youtube. [:
www.youtube.com/jpalkomusic. If it's not up when you look, I'll have it up, then.

         INTO/VERSES/CHORUS:
d|---0-------------0---------------0---|
A|---0-------------0---------------0---|
G|---0-------------0---------------2---|
D|---7-------------5---------------0---|
A|---9-------------5---------------0---|
D|---9-------------5---------------0---|
  "Feels like i'm drowning in ice water.."
      "I bleed my heart out on this paper.."

         BRIDGE:

d|---0------------0----------0---|
A|---0------------0----------0---|
G|---0------------0----------2---|
D|---3------------5----------0---|
A|---3------------5----------0---|
D|---3------------5----------0---|
  "It's all here in black and white..."


       "SOLO" :
d|-------0-----0----7--5----------|
A|---0-7----0-7----5--5--5-9-7----|
G|--------------------------------|
D|--------------------------------|
A|--------------------------------|
D|--------------------------------|

/ & \ = Hammer On & Pull Off

d|------0-----------------------------|
A|---0-7----10-9-7-5-----4/5\4/5\4----|
G|------------------------------------|
D|------------------------------------|
A|------------------------------------|
D|------------------------------------|


Thank you, please comment/rate this. <3
Check out my youtube! [:
Tap to rate this tab
 
# A B C D E F G H I J K L M N O P Q R S T U V W X Y Z