Song name
# A B C D E F G H I J K L M N O P Q R S T U V W X Y Z

Hot Chelle Rae - I Like To Dance tab

Artist: Hot Chelle Rae
Song: I Like To Dance
Album: Lovesick Electric
Tabbed by: gustavoaraujo999@hotmail.com

I just couldn't tab the arpeggio on the verse. If someone knows it, pleease send me a message.

[Intro]
e|------------------------------------------------------------|
B|------------------------------------------------------------|
G|----------------7------5------------------------------------|  
D|----7-----7---------------------3--x--3------5---7*---------|
A|--------------55-5---33-3----------x-------------7*---------|
E|--55-5---5-5------------------11-1-x-1-1---33-3--7*---------|

e|------------------------------------------------------------|
B|------------------------------------------------------------|
G|----------------7------5------------------------------------|  
D|----7-----7---------------------3--x--3------5-----6--------|
A|--------------55-5---33-3----------x------------------------|
E|--55-5---5-5------------------11-1-x-1-1---33-3--44-4-------|

[Intro 2]
e|-------------------------------------------------|
B|-------------------------------------------------|
G|-------------------------------------------------|
D|-----------------10-12-12^---12-10-12-10---------|
A|-12-12-10-12---12------------------------12-10---|
E|-------------------------------------------------|

e|-------------------------------------------------|
B|-------------------------------------------------|
G|-------------------------------------------------|
D|------------10-12-12^^--12-10-12-10--------------|
A|-8-8-7-8--8-------------------------12-10--------|
E|-------------------------------------------------|
 
[Verse]
e|-------------------------------------------------------|
B|-------------------------------------------------------|
G|-------------------------------------------------------|
D|-------------------------------------------------------|
A|--------3----------3----------1------------------------|
E|-5-5-5-5----5-5-5-5----3-3-3-3---1-1-1-1//12\\1--------|
 
[Pre-chorus]
e|--------------------------------------------------|
B|--------------------------------------------------|
G|----------------------------------------55--44----|
D|-33333333--55555555--33333333-55555555--55--44--5-|
A|-33333333--55555555--33333333-55555555--33--22--5-|
E|-11111111--33333333--11111111-33333333----------3-|

[Chorus]
e|----------------------------------------|
B|----------------------------------------|
G|---------7777-x5555---------------------| [x4]
D|--777xx7-7777-x5555-333xx33--5555-x66-x-|
A|--777xx7-5555-x3333-333xx33--5555-x66-x-|
E|--555xx5------------111xx11--3333-x44-x-|

[Interlude]
e|-------------------------------------------------------|
B|-------------------------------------------------------|
G|-------------------------------------------------------|
D|-------------------------5\----------------------------|
A|-------------------------5\----------------------------|
E|--77-5-7---77-5-7--7--7--7\----------------------------|

[Verse]
e|-------------------------------------------------------|
B|-------------------------------------------------------|
G|-------------------------------------------------------|
D|-------------------------------------------------------|
A|--------3----------3----------1------------------------|
E|-5-5-5-5----5-5-5-5----3-3-3-3---1-1-1-1//12\\1--------|

[Pre-chorus]
e|--------------------------------------------------|
B|--------------------------------------------------|
G|----------------------------------------55--44----|
D|-33333333--55555555--33333333-55555555--55--44--5-|
A|-33333333--55555555--33333333-55555555--33--22--5-|
E|-11111111--33333333--11111111-33333333----------3-|

[Chorus]
e|----------------------------------------|
B|----------------------------------------|
G|---------7777-x5555---------------------| [x4]
D|--777xx7-7777-x5555-333xx33--5555-x66-x-|
A|--777xx7-5555-x3333-333xx33--5555-x66-x-|
E|--555xx5------------111xx11--3333-x44-x-|

[Bridge]
e|-------------------------------------|
B|-------------------------------------|
G|-------------------------------------|
D|---77--77-7--1010----77--77-7--12-10-| [x2]
A|---77--77-7--8-8-----77--77-7--10-8--|
E|---55--55-5--8-8-----55--55-5--10-8--|

[Solo]
e|-------------------------------------------------|
B|-------------------------------------------------|
G|-------------------------------------------------|
D|-----------------10-12-12^---12-10-12-10---------|
A|-12-12-10-12---12------------------------12-10---|
E|-------------------------------------------------|

e|-------------------------------------------------------|
B|-------------------------------------------------------|
G|-------------------------------------------------------|
D|------------------10-12-12b13rb12b13rb12b13rb12--------|
A|-12-12-10-12---12--------------------------------------|
E|-------------------------------------------------------|

e|-------------------------------------------------------|
B|------------------13-15-15^--15-13-15-13---------------|
G|-14-14-12-14---14------------------------14-12---------|
D|-------------------------------------------------------|
A|-------------------------------------------------------|
E|-------------------------------------------------------|

e|-----------------------------------------------------|
B|-----------------------------------------------------|
G|-141414141414-1616161616--55-44----------------------|
D|--------------------------55-44-5--------------------|
A|---(tremolo + wah ^^)-----33-22-5--------------------|
E|--------------------------------3--------------------|

[Chorus]
e|----------------------------------------|
B|----------------------------------------|
G|---------xxxx-x5555---------------------|
D|---------xxxx-x5555-333xx33--5555-x66-x-|
A|---------xxxx-x3333-333xx33--5555-x66-x-|
E|--------------------111xx11--3333-x44-x-|

e|----------------------------------------|
B|----------------------------------------|
G|---------7777-x5555---------------------| [x3]
D|--777xx7-7777-x5555-333xx33--5555-x66-x-|
A|--777xx7-5555-x3333-333xx33--5555-x66-x-|
E|--555xx5------------111xx11--3333-x44-x-|

[Outro Chorus]
e|----------------------------------------|
B|----------------------------------------|
G|---------7777-5555----------------------| 
D|--777777-7777-5555-3333333--5555-666-x--|
A|--777777-5555-3333-3333333--5555-666-x--|
E|--555555-----------1111111--3333-444-x--|

e|----------------------------------------|
B|----------------------------------------|
G|---------7777-5555----------------------| 
D|--777777-7777-5555-3333333--5555-x-666--|
A|--777777-5555-3333-3333333--5555-x-666--|
E|--555555-----------1111111--3333-x-444--|
 
[Outro]
e|-----------------|
B|-----------------|
G|-----------------|
D|-77--77-7--1010--|
A|-77--77-7--8-8---|
E|-55--55-5--8-8---|
Tap to rate this tab
 
# A B C D E F G H I J K L M N O P Q R S T U V W X Y Z