Hot Chelle Rae - Bleed tab

Tuned down one step. 

The strumming pattern isn't hard to figure out, just give it a listen.

*Chorus + Verse

d|--------------|
A|--------------|
F|--9---5---1---|
C|--9---7---2---|
G|--7---7---2---|
D|--9---5---0---|

*Bridge

d|-----------------|
A|-----------------|
F|----------6---9--|
C|--4---7---6---9--|
G|--4---7---4---7--|
D|--2---5----------|

d|-----------------|
A|-----------------|
F|----------6---4--|
C|--4---7---6---4--|
G|--4---7---4---2--|
D|--2---5----------|


*Lead riff (second verse)

d|------------------------------------------------------|
A|-------------------12---10---9-7--------10-9----------|
F|----11-9---11-9--9----9----9-------11-7------11-9-8^--|
C|--9------9-----------------------9--------------------|
G|------------------------------------------------------|
D|------------------------------------------------------|

Thats it! Extra simple. Enjoy.
Tabbed by inTIMate. 
any questions e-mail me at tim.jdowney89@gmail.com
Tap to rate this tab
 
# A B C D E F G H I J K L M N O P Q R S T U V W X Y Z