Song name
# A B C D E F G H I J K L M N O P Q R S T U V W X Y Z

Hot Chelle Rae - Tonight Tonight tab

so this is my first tab and my band is gonna cover this song cause its really simple. 
this part is the same through out the whole song but for the chorus its till like the same 
part so enjoy :)
by the way x means dont play that string.



E:|--x--x-x--------x--x-x--|
B:|--x--x-x--------x--x-x--|
G:|--x--x-x--------x--x-x--|
D:|--4--8-9--------11-3-4--|
A:|--2--6-7--------9--1-2--|
E:|--x--x-x--------x--x-x--|

chorus:

E:|--x--x-x--------x--x-x--|
B:|--x--x-x--------x--x-x--|
G:|--2--8-9--------11-3-4--|
D:|--4--8-9--------11-3-4--|
A:|--2--6-7--------9--1-2--|
E:|--x--x-x--------x--x-x--|
Tap to rate this tab
# A B C D E F G H I J K L M N O P Q R S T U V W X Y Z