Song name
# A B C D E F G H I J K L M N O P Q R S T U V W X Y Z

Hot Chip - Out At The Pictures tab

An interesting song that was fairly easy to figure out by ear

Intro
e------------------|
B------------------|
G------------------|
D-2-----------3----|
A---3-3-3-3-3---3--|
E------------------| (Getting progressively faster)

at 1:07
e------------------------------------------------------------------------|
B------------------------------------------------------------------------|
G------------------------------------------------------------------------|
D-2-----------3---2------------------------------------------------------|
A---3-3-3-3-3---3---3-3-3-3-3-3-3-1----------1---------------------------|
E-----------------------------------3-3-3-3-3--3-4-1-1-1-1-1-1-1---------|

at 1:32
e---------------------------------------------------|
B---------------------------------------------------|
G---------------------------------------------------|
D-6-------6-------6---------6-------6-------6-------|
A---8-8-8---8-8-8---8-8-8-----8-8-8---8-8-8---8-8-8-|
E

e---------------------------------------------------------------------|
B---------------------------------------------------------------------|
G---------------------------------------------------------------------|
D-6-------6-------6-----------6--6-------6-------6--------------------|
A---8-8-8---8-8-8---8-8-8-6-8---8--8-8-8---8-8-8---8------------------|
E---------------------------------------------------------------------|

Some Power chords for 1:45
(they are the really distorted part in the background)
e------------------|
B------------------|
G-10-10---8-8------|
D-10-10---8-8---10-|
A--8-8----6-6---10-|
E----------------8-|

1:57
 e-------------------------------------------|
B--------------------------------------------|
G---------------13----------------13---------|
D------------------15-------13h15-----13h15--|
A--15-15-----15----------15------------------|
E--------------------------------------------|

It's on every street....


2:16 (for this part 7=17 and 5=15 to save space)

e--------------------------------------------|
B--------------------------------------------|
G-7-777-777-777-775-555-555-555-55-----------|
D---------------------------------7-777-777--|
A--------------------------------------------|
E--------------------------------------------|

weather weather weather....................................................there's a 
world in there


2:41

e-6h7p6-----------|
B--------9--6-----|
G-----------------|
D-(variations of this)--
A-----------------|
E-----------------|

3:12

e--------------|
B--------------|
G-10---10---10-|
D-10---10---10-|
A--8----8----8-|
E--------------|


then repeat the part where 7=17
except that at 3:25 it does up to 18 on the B string
3:40

 e-------------------------------------------|
B--------------------------------------------|
G---------------13----------------13---------|
D------------------15-------13h15-----13h15--|
A--15-15-----15----------15------------------|
E--------------------------------------------|

repeat 3:25   and you're done. note this does not include the guitar that mimics the 
voice. I will tab that later.
Tap to rate this tab
 
# A B C D E F G H I J K L M N O P Q R S T U V W X Y Z