Guitaretab - guitar tabs
Song name
# A B C D E F G H I J K L M N O P Q R S T U V W X Y Z

Hot Chip - The Warnind tab

----------------------------------------------------------------------------
			     THE WARNING - Hot Chip
----------------------------------------------------------------------------

The songs doesn't really have chords to speak of so this is based around the bass line, 
think it works quite well.

Intro
e|--7-------------------------------|
B|-8-----5---6-8---8-6-5------------|
G|-----5------------------5---------| Repeat with some variations to
D|----------------------------------| the walk down. Make it up, I'm pretty
A|----------------------------------| sure they do.
E|----------------------------------|

There is also this riff which goes through most of the song
e|-------------------------------------------------|
B|-------------------------------------------------|
G|-------------------------------------------------|
D|--------7------5----2(hold)----------------------|
A|-------------------------------------------------|
E|-------------------------------------------------|

And the bass line
(which you play over and over and over and over and over. See what I did there?)

G|-------------------|
D|-------------------|
A|-12---10---8---3---|
E|-------------------|

Am        G        F        C             Am          G          F   C
Excuse me sir, I'm lost I'm looking for a place where I can get lost.
    Am            G           F              C
I'm looking for a home for my malfunctioning being.
    Am              G           F     C
I'm looking for the mechanical music museum.

(continure with the same chords)

This is a warning I'll spell it out for you, for you.
This is a warning I'll spell it out for you.
[ Tab from: http://www.guitaretab.com/h/hot-chip/183063.html ]
Excuse me miss I'm a dog on heat.
I'm a complicated being with love songs to beat.
I'm a problem solving baby who could march all night.
I'm a mechanical music man and I'm starting a fire.

Hot Chip with break your legs, snap off your head.
Hot Chip will put you down, under the ground.

Solo: starts like this then jam around the C major scale
e|------------------------------------|
B|-5(hold)------5--------5------------|
G|-------5--7------5-7----------------|
D|------------------------------------|
A|------------------------------------|
E|------------------------------------|

Excuse me child, I am trying to see all the colors and wonder your brightness can be.
Return to nothingness and joy just might be right.
But prepare yourself for a mechanical fright.

This is a warning I'll spell it out for you, for you.
This is a warning I'll spell it out for you, for you.

Hot chip will break your legs, snap off your head.
Hot chip will put you down, under the ground.
Hot chip will break your legs, snap off your head.
Hot chip will put you down, under the ground.

Break down
This bassline is messed about with,play it with power chords if you want.

e|------------------------|
B|------------------------|
G|------------------------|
D|------------------------|
A|----5--3--5---------3---|
E|------------3-3-5-5-----|

Excuse me son, I'm found I'm looking for a place where I was once found.
There's nothing in a world where the melody is broken.
There's always some way to make the silence be spoken.

Hot chip will break your legs, snap off your head.
Hot chip will put you down, under the ground.
Hot chp will break your legs snap, off your head.
Hot chip will put you down, under the ground.

Fin
This is essentially the main parts. They play variations of everything all the time and 
don't see the point in tabbing it all out. Just mess about with what's here and you'll 
the feel for it.
Related for The Warnind tab
Advertisement will be closed in 10 seconds