Song name
# A B C D E F G H I J K L M N O P Q R S T U V W X Y Z

Hot Chip - One Pure Thought tab

-----------------------------------------------------------------------------
			     One Pure Though - Hot Chip
-----------------------------------------------------------------------------
Tabbed by: Jeff


e|-----------------------------------------------------------------------|
B|--7-----7---7--7---9--9--7--6--6---6------6--6----------6--6---6--6----|
G|--6-----6---6--6---6--6-----6--6---6------6--6----------6--6---6--6----|
D|--6h8---8---8--8---8--8-----8--8---8(p6)--6--6----------6--6---6--6----|
A|--9--------------------------------------------------------------------|
E|-------------------------------------------------9-9-9--------9-8-8-8--|

e|----------------------------------------------------------------------|
B|----------6-----------------------------------------------------------|
G|----------6-----------------------------------------------------------|
D|------4---6-----------------------------------------------------------|
A|------4---4-----------------------------------------------------------|
E|--8-7-2---------------------------------------------------------------|


************************************

| /   slide up
| \   slide down
| h   hammer-on
| p   pull-off
| ~   vibrato
| +   harmonic
| x   Mute note
| b   Bend
| pb  Pre-bend
| br  Bend release
| pbr Pre-bend release
| brb Bend release bend

************************************
Tap to rate this tab
 
# A B C D E F G H I J K L M N O P Q R S T U V W X Y Z