Song name
# A B C D E F G H I J K L M N O P Q R S T U V W X Y Z

Hot Chip - Look After Me tab

-------------------------------------------------------------------------------
			     Look After Me - Hot Chip
-------------------------------------------------------------------------------
Tabbed by: fernandoBOT
Email: fernandoBOT@sbcglobal.net

Tuning: Standard

Notes: This whole song is based off of 2 chords with a small variation between the chord 
The variation is simply the first chord's notes being struck individually.

e|-7------7--------------------------------------------------------------------|
B|-8------7--------------------------------------------------------------------|
G|-7------7--------------------------------------------------------------------|
D|-9------9--------------------------------------------------------------------|
A|-7------9--------------------------------------------------------------------|
E|--------7--------------------------------------------------------------------|

Variation:
 -----------------------------------|
 8----8----8--8---------------------|
 --7----7-------7-----7-------7-----|
 -----------------9-----7---7---7---|
 -------------------------7-------7-|
 -----------------------------------|

Occasionally you'll hear a:
 ----------|
 ----------|
 ----------|
 --------7-|
 7h9-7h9---|
 ----------|

enjoi.
Tap to rate this tab
# A B C D E F G H I J K L M N O P Q R S T U V W X Y Z