Song name
# A B C D E F G H I J K L M N O P Q R S T U V W X Y Z

Hot Chocolate - You Sexy Thing tab

This is played from D not original

Intro:

E|---------------------------|
B|---------------------------|
G|---------------------------|
D|----4-5-7---4--------------|
A|--5-------5----------------|
E|---------------------------|

Vers:
     D   G
E|--------------------------|
B|---7---8------------------|
G|---7---7------------------|
D|---7---9------------------|  x2
A|--------------------------|
E|--------------------------|

E|--3--5--7--9--------------|
B|--3--5--8--10-------------|
G|--4--6--7--9--------------|
D|--------------------------|
A|--------------------------|
E|--------------------------|

Bridge:

E|--5---4--5--5------------|
B|--7---5--7--5------------|
G|--6---4--6--6------------|
D|-------------------------|
A|-------------------------|
E|-------------------------|

Ref:

E|-------------------------|
B|--7--8-------------------|
G|--7--7-------------------|
D|--7--9-------------------|
A|-------------------------|
E|-------------------------|


Very easy song !
Tap to rate this tab
 
# A B C D E F G H I J K L M N O P Q R S T U V W X Y Z