Song name
# A B C D E F G H I J K L M N O P Q R S T U V W X Y Z

Hot Chocolate - You Sexy Thing tab

Verse
|-------------|-------------|
|1--------1---|3----------3-|
|2--------2---|3----------3-|  
|-------------|-------------|  x2
|-------------|-------------|
|-------------|-------------|

|-------------|-------------|
|1--------1---|3----------3-|
|2--------2---|3----------3-|  x2
|-------------|-------------|
|-----0-1-3-0-|1----------1-|
|1------------|-------------|

|-------------|-------------|
|1--------1---|3----------3-|
|2--------2---|3----------3-|  
|-------------|-------------|  x4
|-------------|-------------|
|-------------|-------------|

|-------------|-------------|
|1--------1---|3----------3-|
|2--------2---|3----------3-|  x2
|-------------|-------------|
|-----0-1-3-0-|1----------1-|
|1------------|-------------|

|-------------|-------------|
|1--------1---|3----------3-|
|2--------2---|3----------3-|  
|-------------|-------------|  x2
|-------------|-------------|
|-------------|-------------|


Bridge

|-------------|-------------|
|3--------3---|5----------5-|
|3--------3---|5----------5-|  
|-------------|-------------|  x2
|1--------1---|3----------3-|
|-------------|-------------|

|-------------|-------------|
|1--------1---|0----------0-|
|2--------2---|0----------0-|  
|-------------|-------------|  x1
|0--------0---|-------------|
|-------------|3----------3-|

|-------------|-------------|
|1------------|1------3---1-|
|2------------|2------3---2-|  
|-------------|-------------|  x1
|0------------|0------1---0-|
|-------------|-------------|

Chorus

|-------------|-------------|
|1--------1---|3----------3-|
|2--------2---|3----------3-|  x4
|-------------|-------------|
|-----0-1-3-0-|1----------1-|
|1------------|-------------|



You get the idea, it's pretty easy, verse, bridge, chorus and repeat :)
Tap to rate this tab
# A B C D E F G H I J K L M N O P Q R S T U V W X Y Z