Song name
# A B C D E F G H I J K L M N O P Q R S T U V W X Y Z

Hot Chocolate - Everyones A Winner tab

Hot Chocolate-Every 1's a Winner


e|-------------------------|---------------------|
B|-------------------------|---------------------|
G|-------------------------|---------------------|
D|-1-0-1-0-1-0-1-0-1-0-----|-----6-----6---------|
A|---------------------3-1-|-6/8---6-8---8-6-8~~~|
E|-------------------------|---------------------|

e|-------------------------|--------------------------|
B|-------------------------|--------------------------|
G|-------------------------|--------------------------|
D|-1-0-1-0-1-0-1-0-1-0-----|----------------8---6-----|
A|---------------------3-1-|-----6-6---6--8---8---8~~~|
E|-------------------------|-6/8-----8--8-------------|
Tap to rate this tab
 
# A B C D E F G H I J K L M N O P Q R S T U V W X Y Z