Song name
# A B C D E F G H I J K L M N O P Q R S T U V W X Y Z

Hot Club De Paris - They Shoot Horses Dont They tab

Rhythm;

e]--------------------:
b]--------------------:
g]--------------------:
d]-0-/5-0-/7-0-/9-0-12:
a]--------------------:
e]--------------------:

Lead (begins 0:33);

e]--------------------------------:
b]-------------8------------8~----:
g]---------7-9---9-7--------7~(7)-:
d]-----7-9-----------9-7----------:
a]--10-------------------10-------:
e]--------------------------------:


Rhythm Part 2 (0:58);

e]-------------:
b]-------------:
g]-------------:
d]-5~-7~-8~-7~-:    
a]-------------:
e]-------------:


Lead Part 2;

e]------------:
b]------------:
g]-12-12p9----:
d]------------:
a]---------10-:
e]------------:

Then back to the first two parts for the ending. Simples.
Tap to rate this tab
# A B C D E F G H I J K L M N O P Q R S T U V W X Y Z