Song name
# A B C D E F G H I J K L M N O P Q R S T U V W X Y Z

Hot Cross - Patience And Prudence tab

Help us improve GuitareTab! Take a short survey!
not complete but i jus wanna share it and get some feedback

==============================================
                RHYTHM Guitar
==============================================


0:00-0:18
E---------------------------------------------|
B-------8--11-8----------8--9-8---------------|
G-----8---------8------8--------8-------------|
D--10----------------8------------------------|
A---------------------------------------------|
E---------------------------------------------|


1:07-1:18
E---------------------------------------------|
B-------8--11-8----------8--9-8---------------|
G-----8---------8------8--------8-------------|
D--10----------------8------------------------|
A---------------------------------------------|
E---------------------------------------------|


1:19-1:29
E------------------------|
B------------------------|
G--5~~---------5~~-------|
D--------6~~---------6~~-|
A--3~~---------3~~-------|
E--------4~~---------4~~-|


2:06-2:16
E-------------------------------------|
B-------------------------------------|
G--5555--5555--5555-------------------|
D-------------------6666--6666--6666--|
A--3333--3333--3333-------------------|
E-------------------4444--4444--4444--|

E-------------------------------------|
B-------------------------------------|
G--5555--5555--5555-------------------|
D-------------------6666--6666--6666--|
A--3333--3333--3333-------------------|
E-------------------4444--4444--4444--|

E-------|
B-------|
G--5~~--
D-------
A--3~~--
E-------

==============================================
                LEAD Guitar
==============================================

0:43-0:54
Tremolo the brackets
E----------------------------|
B----------------------------|
G----------------------------|
A--(6)--(8)--(10)--(5)-------|
E-----------------------(6)--|

E----------------------------|
B----------------------------|
G----------------------------|
A--(6)--(8)--(10)--(5)--(10)-|
E----------------------------|


1:07-1:18
E-------|
B-------|
G--8~~--|
D-------|
A--6~~--|
E-------|

E----------------------------|
B----------------------------|
G----------------------------|
A--(6)--(8)--(10)--5~--------|
E------------------------6~--|


1:19-1:29
E------------------------|
B------------------------|
G--12~~--8~~--12~~--8~~--|
D------------------------|
A--10~~--6~~--10~~--6~~--|
E------------------------|
Related for Patience And Prudence tab