Song name
# A B C D E F G H I J K L M N O P Q R S T U V W X Y Z

Hot Cross - Fatefully tab

Hot Cross - Fatefully
half step down

eb|--------0~-------|----------------3-3-------------------------------3-3-|-023575320-|-02320---|
Bb|--------0~---0~--|----------------3-3-------------------------------3-3-|-----------|------30-|
Gb|--------0~---0~--|------------------------------------------------------|-----------|---------|
Db|-------------0~--|----------2p0--------------2p0--------------2p0-------|-----------|---------|
Ab|-----------------|---2p03p0----3p0----2p03p0----3p0----2p03p0----3p0----|-----------|---------|
Eb|-0--0----------/-|-0-----------------0-------------330------------------|-----------|---------|


eb|----------------------------------------|---------|---------|
Bb|----------------------------------------|-3-5-8-5-|-3-5-0-3-|
Gb|----------------------------------------|-2-4-7-4-|-2-4-0-2-|
Db|----------045---------04575---------045-|---------|---------|
Ab|--2p03p0-------2p03p0--------2p03p0-----|---------|---------|
Eb|-0------------0-------------0-----------|---------|---------|

                                            1st       2nd
eb|----------------3-3-------------------------------3-3-|-023575320-|-02320---|-0--19+-22+-|
Bb|----------------3-3-------------------------------3-3-|-----------|------30-|-0----------|
Gb|------------------------------------------------------|-----------|---------|-0----------|
Db|----------2p0--------------2p0--------------2p0-------|-----------|---------|------------|
Ab|---2p03p0----3p0----2p03p0----3p0----2p03p0----3p0----|-----------|---------|------------|
Eb|-0-----------------0-------------330------------------|-----------|---------|------------|
							  1st         2nd

eb|----------------3p02-----------------------|----|-------0--|
Bb|--------------------0-3p0-5p3----------3p0-|--3-|--0---3-0-|
Gb|-----------4p0----------------4p02p0-------|--0-|---2/4----|
Db|--------2p0----2-----0--------------2p0----|--x-|----------|
Ab|---0h2h3---------------------0-------------|-33-|-3--------|
Eb|-00----------------------------------------|----|----------|
                                               1st  3rd
					       2nd
                                               4th

eb|---------------333333331010101010101010------------|
Bb|---------------55555555-8-8-8-8-8-8-8-8--3-----3---|
Gb|-----------4p0--------------------------4-4~--4-4~-|
Db|--------2p0----------------------------------------|
Ab|---0h2h3-------------------------------0-----3-----|
Eb|-00------------------------------------------------|
   5th

eb|---------0-----------------------0---------|---------|---------0-------------------0---------|
Bb|--------3-3---------------------3-3--------|---------|--------3-3-----------------3-3--------|
Gb|--2p0--4----2p0---4p02p0--2p0--4-----------|---------|--2p0--4----2p0--0----2p0--4-----------|
Db|-----2---------2--------5----2-----------0-|-------0-|-----2---------2---2-----2-----------0-|
Ab|-3----3----3----30-------3----3----0---2---|-0---2---|-3----3----3----3----3----3----0---2---|
Eb|-------------------------------------3-----|---3-----|---------------------------------3-----|
                                               2nd       3rd and 4th
eb|----------------------------------|
Bb|-333333333333333311111111---------|
Gb|-000000000000000022222222---------|
Db|-xxxxxxxxxxxxxxxx2222222222222222-|
Ab|-33333333333333330000000022222222-|
Eb|-------------------------00000000-|

eb|---------------------------0-|
Bb|---------------------------0-|
Gb|---------------------------0-|
Db|-2224442224442244224420------|
Ab|-333333333333333300000022----|
Eb|-----------------------000---|

eb|-0~--------------0~-------------7~-------------------------------------------|-0~-(12-7-5-7-10)|
Bb|-0--3~-----------0---3~------------7-5-0-----3p0-7-5-0bb--7-5-0----3p0-7-5-0-|-0~--------------|
Gb|-0~-------4-2-0~-0~-------4-2/up----------2/4-------------------2/4----------|-0~--------------|
Db|-x---------------x-----------------------------------------------------------|-x---------------|
Ab|-3~--------------3~----------------------------------------------------------|-3~--------------|
Eb|-----------------------------------------------------------------------------|-----------------|
Tap to rate this tab
# A B C D E F G H I J K L M N O P Q R S T U V W X Y Z