Song name
# A B C D E F G H I J K L M N O P Q R S T U V W X Y Z

Hot Cross - Turncoat Revolution tab

    Turncoat Revolution - Hot Cross
-------------------------------------------------------------------------------
Tabbed by: Ray Suhanic-Hazlitt
Email: raysuhanichazlitt@gmail.com

Tuning: Half-Step Down

                             Verse riff 1 x2
eb|----10p0---------------------------10p0------------------------------------|
Bb|---------12p0-10p0-8p0-7h8p7p0-----------12p0-10p0-8p0-7-------------------|
Gb|---------------------------------------------------------------------------|
Db|---------------------------------------------------------------------------|
Ab|---------------------------------------------------------------------------|
Eb|0-------------------------------0------------------------------------------|


eb|----10p0-------------------------------------------------------------------|
Bb|---------12p0-10p0-8p0-7h8p7p0-----10/8-----10/12--------------------------|
Gb|--------------------------------5--------7---------------------------------|
Db|---------------------------------------------------------------------------|
Ab|---------------------------------------------------------------------------|
Eb|0--------------------------------------------------------------------------|

                             Verse riff 2 x1
eb|---10p0----------14p0-12p0-10p0----------10p0------------------------------|
Bb|---------12p0--------------------12p0----------12p0-10p0-8p0-7/8-----------|
Gb|---------------------------------------------------------------------------|
Db|---------------------------------------------------------------------------|
Ab|---------------------------------------------------------------------------|
Eb|0--------------------------------------0-----------------------------------|

eb|----10p0-------------------------------------------------------------------|
Bb|---------12p0-10p0-8p0-7h8p7p0-----10/8-----10/12--------------------------|
Gb|--------------------------------5--------7---------------------------------|
Db|---------------------------------------------------------------------------|
Ab|---------------------------------------------------------------------------|
Eb|0--------------------------------------------------------------------------|

                        *Verse riff 1 is played once*


                                Chorus x2
eb|---------------------------------------------------------------------------|
Bb|---------------------------------------------------------------------------|
Gb|9--9--9--7--9----12--12--12--7--9----9--9--9--7--9----7-9-7----------------|
Db|9--9--9--7--9----12--12--12--7--9----9--9--9--7--9----------7-5------------|
Ab|7--7--7--5--7----10--10--10--5--7----7--7--7--5--7---------------7---------|
Eb|---------------------------------------------------------------------------|


eb|---------------------------------------------------------------------------|
Bb|---------------------------------------------------------------------------|
Gb|9--9--9--7--9----12--12--12--7--9----7-9-7--------7-9-7--------------------|
Db|9--9--9--7--9----12--12--12--7--9----------7-5-----------7-5---------------|
Ab|7--7--7--5--7----10--10--10--5--7--------------7-------------7-------------|
Eb|---------------------------------------------------------------------------|

                             Verse 2 Riff 1 x3
eb|-----------------------15p14------10--------------------------------------------|
Bb|---8/12-----10/12---------------------12-------8/12------10/12------------------|
Gb|--------------------------------------------------------------------------------|
Db|--------------------------------------------------------------------------------|
Ab|10-------12--------14---------12-----------10--------12---------14-14-14--------|
Eb|8--------10--------12---------10-----------8---------10---------12-12-12--------|

eb|---------------------------------------------------------------------------|
Bb|---------------------------------------------------------------------------|
Gb|---------------------------------------------------------------------------|
Db|---------------------------------------------------------------------------|
Ab|12-14----------------------------------------------------------------------|
Eb|10-12----------------------------------------------------------------------|
                             Verse 2 riff 2 x2
eb|---------------------------------------------------------------------------|
Bb|---------------------------------------------------------------------------|
Gb|---9p0-7p0---------------------9p0-7p0----------------9p0-7p0--------------|
Db|------------9p0-7p0-5h7p5---------------9p0-7p0-5--------------9p0-7p0-----|
Ab|--------------------------7------------------------------------------------|
Eb|0----------------------------0---------------------0-----------------------|
   Second time finish on 8th fret of the G string instead of 9th on the G
eb|---------------------------------------------------------------------------|
Bb|-------8-7-----------------------------------------------------------------|
Gb|----7-9----9---------------------------------------------------------------|
Db|5/7------------------------------------------------------------------------|
Ab|---------------------------------------------------------------------------|
Eb|---------------------------------------------------------------------------|
                              Verse 2 riff 3
eb|---15-0-15-14----------14-15^----------------------------------------------|
Bb|---15-0-------------15-----------------------------------------------------|
Gb|--------------------14-----------------------------------------------------|
Db|14---------------12-12-----------------------------------------------------|
Ab|14-------------------------------------------------------------------------|
Eb|12-------------------------------------------------------------------------|
                              Verse 2 riff 4
eb|---------------------------------------------------------------------------|
Bb|---------------------------------------------------------------------------|
Gb|---9p0-7p0-----------------------9p0-7p0----------------9p0-7p0------------|
Db|------------9p0-7p0-5h7p5-----------------9p0-7p0-5--------------9p0-7p0---|
Ab|---------------------------7-----------------------------------------------|
Eb|0-----------------------------0----------------------0---------------------|

eb|---------------------------------------------------------------------------|
Bb|---------------------------------------------------------------------------|
Gb|----7-9-7-9----------------------------------------------------------------|
Db|5/7------------------------------------------------------------------------|
Ab|---------------------------------------------------------------------------|
Eb|---------------------------------------------------------------------------|

                                 Chorus x2
eb|---------------------------------------------------------------------------|
Bb|---------------------------------------------------------------------------|
Gb|9--9--9--7--9----12--12--12--7--9----9--9--9--7--9----7-9-7----------------|
Db|9--9--9--7--9----12--12--12--7--9----9--9--9--7--9----------7-5------------|
Ab|7--7--7--5--7----10--10--10--5--7----7--7--7--5--7---------------7---------|
Eb|---------------------------------------------------------------------------|


eb|---------------------------------------------------------------------------|
Bb|---------------------------------------------------------------------------|
Gb|9--9--9--7--9----12--12--12--7--9----7-9-7--------7-9-7--------------------|
Db|9--9--9--7--9----12--12--12--7--9----------7-5-----------7-5---------------|
Ab|7--7--7--5--7----10--10--10--5--7--------------7-------------7-------------|
Eb|---------------------------------------------------------------------------|

                             Verse 3 Riff 1 x3
eb|-----------------------15p14------10--------------------------------------------|
Bb|---8/12-----10/12---------------------12-------8/12------10/12------------------|
Gb|--------------------------------------------------------------------------------|
Db|--------------------------------------------------------------------------------|
Ab|10-------12--------14---------12-----------10--------12---------14-14-14--------|
Eb|8--------10--------12---------10-----------8---------10---------12-12-12--------|

eb|---------------------------------------------------------------------------|
Bb|---------------------------------------------------------------------------|
Gb|---------------------------------------------------------------------------|
Db|---------------------------------------------------------------------------|
Ab|12-14----------------------------------------------------------------------|
Eb|10-12----------------------------------------------------------------------|
                             Verse 3 riff 2 x2
eb|---------------------------------------------------------------------------|
Bb|---------------------------------------------------------------------------|
Gb|---9p0-7p0---------------------9p0-7p0----------------9p0-7p0--------------|
Db|------------9p0-7p0-5h7p5---------------9p0-7p0-5--------------9p0-7p0-----|
Ab|--------------------------7------------------------------------------------|
Eb|0----------------------------0---------------------0-----------------------|
   Second time finish on 8th fret of the G string instead of 9th on the G
eb|---------------------------------------------------------------------------|
Bb|-------8-7-----------------------------------------------------------------|
Gb|----7-9----9---------------------------------------------------------------|
Db|5/7------------------------------------------------------------------------|
Ab|---------------------------------------------------------------------------|
Eb|---------------------------------------------------------------------------|
                              Verse 3 riff 3
eb|---15-0-15-14----------14-15^----------------------------------------------|
Bb|---15-0-------------15-----------------------------------------------------|
Gb|--------------------14-----------------------------------------------------|
Db|14---------------12-12-----------------------------------------------------|
Ab|14-------------------------------------------------------------------------|
Eb|12-------------------------------------------------------------------------|
                             Verse 3 riff 4
eb|---------------------------------------------------------------------------|
Bb|---------------------------------------------------------------------------|
Gb|---9p0-7p0-----------------------9p0-7p0----------------9p0-7p0------------|
Db|------------9p0-7p0-5h7p5-----------------9p0-7p0-5--------------9p0-7p0---|
Ab|---------------------------7-----------------------------------------------|
Eb|0-----------------------------0----------------------0---------------------|

eb|---------------------------------------------------------------------------|
Bb|---------------------------------------------------------------------------|
Gb|----7-9-7-9----------------------------------------------------------------|
Db|5/7------------------------------------------------------------------------|
Ab|---------------------------------------------------------------------------|
Eb|---------------------------------------------------------------------------|
                              Bridge riff 1 x4
eb|---------------------------------------------------------------------------|
Bb|---------------------------------------------------------------------------|
Gb|-----------------------------7---------------------------------------------|
Db|------------------12---9-7h9-----------------------------------------------|
Ab|7p5-7p5-7p5-7p5-7-10p9-7-9-------------------------------------------------|
Eb|---------------------------------------------------------------------------|
                              Bridge riff 2
eb|-----------------------------------------------------------------------------|
Bb|-----------------------------------------------------------------------------|
Gb|----------------------9------7-------9------7-------9-------7----------------|
Db|----------------------9------7-------9------7-------9-------7--------4-------|
Ab|7p5-7p5-7p5-7p5-7--7------7------7-------7------7-------7-------5h7----5-----|
Eb|-----------------------------------------------------------------------------|
--|


eb|---------------------------------------------------------------------------|
Bb|---------------------------------------------------------------------------|
Gb|-------------9-------7-------9-------7-------9-------7---------------------|
Db|7-5-4-0------9-------7-------9-------7-------9-------7-------4---7/9p0-----|
Ab|---------7-------7-------7-------7-------7-------7-------5h7---5-----------|
Eb|---------------------------------------------------------------------------|


eb|---------------------------------------------------------------------------|
Bb|---------------------------------------------------------------------------|
Gb|----9-------7-------9-------7-------9-------7------------------------------|
Db|----9-------7-------9-------7-------9-------7------4---7-5-4-0-------------|
Ab|7-------7-------7-------7-------7-------7------5h7---5---------------------|
Eb|---------------------------------------------------------------------------|


eb|---------------------------------------------------------------------------|
Bb|---------------------------------------------------------------------------|
Gb|----9-------7-------9-------7-------9-------7------------------------------|
Db|----9-------7-------9-------7-------9-------7------4---7/9p0---------------|
Ab|7-------7-------7-------7-------7-------7------5h7---5---------------------|
Eb|---------------------------------------------------------------------------|


            Play Verse one all the way through again and then..

                            Outro riff 1 x3
eb|---------------------------------------------------------------------------|
Bb|-------------------8-7-5-----8-7-5-3h5p0-----------------------------------|
Gb|9-9-9-9---7-7-7-7--------7-4-----------------------------------------------|
Db|9-9-9-9---7-7-7-7----------------------------------------------------------|
Ab|7-7-7-7---5-5-5-5----------------------------------------------------------|
Eb|---------------------------------------------------------------------------|


eb|-------------------------------------5h7p0---------------------------------|
Bb|-------------------8-7-5-----8-7-5-----------------------------------------|
Gb|9-9-9-9---7-7-7-7--------7-4-----------------------------------------------|
Db|9-9-9-9---7-7-7-7----------------------------------------------------------|
Ab|7-7-7-7---5-5-5-5----------------------------------------------------------|
Eb|---------------------------------------------------------------------------|

                             Outro  riff 2
eb|---------------------------------------------------------------------------|
Bb|--------------------7-8-7--------------------------------------------------|
Gb|9---7-----------7-9--------9p7p0-----------9-7---9-7-----------------------|
Db|9---7-------7-9-------------------7h9p7p0--9-7-2-9-7-2---------------------|
Ab|7---5---5/7--------------------------------7-5-2-7-5-2---------------------|
Eb|-----------------------------------------------0-----0---------------------|


So yeah that's about it, any corrections can be sent to my e-mail at the top or posted 
the comments section and good luck with this awesome song by an awesome band

| /  slide up
| \  slide down
| h  hammer-on
| p  pull-off
| ~  vibrato
| +  harmonic
| x  Mute note
| ^  Bend note
============================================================================
Tap to rate this tab
# A B C D E F G H I J K L M N O P Q R S T U V W X Y Z