Song name
# A B C D E F G H I J K L M N O P Q R S T U V W X Y Z

Hot Cross - Cardiac Silence tab

-----------------------------------------------------------------------------
			     hot cross - cardiac silence
-----------------------------------------------------------------------------
Tabbed by:david
Email:thischarmingman13@gmail.com

Tuning:drop d


cardiac silence
x...x - mute notes in between
e|---------------------------------------------------------------------------|
B|--------------------------------------------44-----------------------------|
G|-----------5--------x555x---------5-----3355-------------------------------|
D|----6-------8----6----------6-------8--------------------------------------|
A|---------------------------------------------------------------------------|
D|-33--3--66----33---------33--3--66----33-----------------------------------|

e|---------------------------------------------------------------------------|
B|--------------------------------------------446644-------------------------|
G|-----------5--------x555x---------5-----3355------5------------------------|
D|----6-------8----6----------6-------8--------------------------------------|
A|---------------------------------------------------------------------------|
D|-33--3--66----33---------33--3--66----33-----------------------------------|

e|---------------------------------------------------------------------------|
B|--------------------------------------------44-----------------------------|
G|-----------5--------x555x---------5-----3355-------------------------------|
D|----6-------8----6----------6-------8--------------------------------------|
A|---------------------------------------------------------------------------|
D|-33--3--66----33---------33--3--66----33-----------------------------------|

e|---------------------------------------------------------------------------|
B|--------------------------------------------446644-------------------------|
G|-----------5--------x555x---------5-----3355------3h5p3\-------------------|
D|----6-------8----6----------6-------8--------------------------------------|
A|---------------------------------------------------------------------------|
D|-33--3--66----33---------33--3--66----33-----------------------------------|

| /  slide up
| \  slide down
| h  hammer-on
| p  pull-off
| ~  vibrato
| +  harmonic
| x  Mute note
Tap to rate this tab
 
# A B C D E F G H I J K L M N O P Q R S T U V W X Y Z