Song name
# A B C D E F G H I J K L M N O P Q R S T U V W X Y Z

Hot Cross - Better A Corpse Than A Nun tab

                        Better A Corpse Than A Nun
                                Hot Cross
                        Fair Trades and Farewells
Josh starts with this
E|--------------------------------------------------------|
B|--4------------------------4----------------------------|
G|---3----6—4h6p4-3-3h4p3-----3----6-4-6-3h4p3----------|
D|----3~~5---------------3-----3~~5-----------3-----------|
A|--------------------------------------------------------|
D|--------------------------------------------------------|

Casey comes in with this
E|-----------7h9p7-6-6h7p6------------7-9-6h7p6-----------|
B|--4---------------------6---4----------------6----------|
G|---3----6--------------------3----6---------------------|
D|----3~~5----------------------3~~5----------------------|
A|--------------------------------------------------------|
D|--------------------------------------------------------|



http://www.level-plane.com/hotcross/
Tap to rate this tab
# A B C D E F G H I J K L M N O P Q R S T U V W X Y Z