Guitaretab - guitar tabs
Song name
# A B C D E F G H I J K L M N O P Q R S T U V W X Y Z

Hot Cross - Throw Collars To The Wind tab

Tuned down a half step
[ Tab from: http://www.guitaretab.com/h/hot-cross/87108.html ]
Intro
|-------------------------------------------------------------------------------------|
|-----------------------2p0-2p0-2/52p0-0h2-0h5h7p5p0----------------------2p0-2/52p0--|
|--------------------------------------------------------------------4----------------|
|--4-4-7-4-7--4-4-7-4-7-------------------------------4-4-7-4-7--4-4---7-4------------|
|-------------------------------------------------------------------------------------|
|-------------------------------------------------------------------------------------|
|                                                                                       |
|----------------------------------------------------------------------------------------|
|--2p0----------------------------2p0-2p0-2/52p0-2p0-12p0-12p0-12p0----------------------|
|------4~~~~------------------------------------------------------------------------4----|
|------------4-4-7-4-7--4-4-7-4-7------------------------------------4-4-7-4-7--4-4---7--|
|----------------------------------------------------------------------------------------|
|----------------------------------------------------------------------------------------|
|                                    Intro Guitar 2 - Tremolo strum these chords        |
|----------------------------------|----------------------------------------------------|
|----2p0-2p0-2p0-2p0-12p0-12p0-12--|----------------------------------------------------|
|----------------------------------|--11---9---11---9---16---11---9---16---11---9-------|
|--4-------------------------------|----------------------------------------------------|
|----------------------------------|---9---7----9---7---14----9---7---14----9---7-------|
|----------------------------------|----------------------------------------------------|


Verse 1
|---------------------------------------------------------------------------------------|
|---------------------------------------------------------------------------------------|
|----------------------------------4~---------------------------------------------4~----|
|------------------------------------4-3-2----------------------------------------------|
|--4-4-4-4---------2-----4-4-4-4-4--------4-2-0---4-4-4-4---------2-----4-4-4-4-4---12/-|
|--2-2-0-2-5b1/2---01-02-0-2-0-2------------5p0-2-2-0-2-5b1/2---0-1-0-2-0-2-0-2---12/-|
|                                                                                       |
|---------------------------------------------------------------------------------------|
|---------------------------------------------------------------------------------------|
|----------------------------------4~---------------------------------------------4-----|
|------------------------------------4-3-2-----------------------------------------3-2-0|
|--4-4-4-4---------2-----4-4-4-4-4--------4-2-0---4-4-4-4---------2-----4-4-4-4-4-------|
|--2-2-0-2-5b1/2---01-02-0-2-0-2------------5p0-2-2-0-2-5b1/2---0-1-0-2-0-2-0-2-------|
Related for Throw Collars To The Wind tab