Guitaretab - guitar tabs
Song name
# A B C D E F G H I J K L M N O P Q R S T U V W X Y Z

Hot Cross - Prepare Repair tab

x - finger mute
h - hammer on
p - pull off
()- harmonics
. - palm mute
~ - hold note

if you have any questions or comments my e-mails are postlapsaria@hotmail.com or deftmac@hotmail.com

Hot Cross' guitarist (Casey,Josh) tune half a step down

Intro Guitar 1 (Guitar 2 plays nothing here)
|---------------------------------------------------------------------------------------|
|---------------------------------------------------------------------------------------|
|--xx-2--2-2-0-0-0-2--2-2-0-0-0---------------------------------------------------------|
|--xx-2--2-2-0-0-0-2--2-2-0-0-0----------xx-3-3-xx-3-3-xx-5-----------------------------|
|--xx-0--0-0-x-x-x-0--0-0-x-x-x-2h3p2p0--xx-3-3-xx-3-3-xx-5-----------------------------|
|------------3-3-3--------3-3-3----------00-1-1-00-1-1-00-3-----------------------------|

Verse 1 Guitar 1 x4
|---------------------------------------------------------------------------------------|
|---------------------------------------------------------------------------------------|
|--2--2-2-0-0-0-2--2-2-0-0-0------------------------------------------------------------|
|--2--2-2-0-0-0-2--2-2-0-0-0----------xx-3-3-xx-3-3-xx-5--------------------------------|
|--0--0-0-x-x-x-0--0-0-x-x-x-2h3p2p0--xx-3-3-xx-3-3-xx-5--------------------------------|
|---------3-3-3--------3-3-3----------00-1-1-00-1-1-00-3--------------------------------|
|                                                                                       |
|---------------------------------------------------------------------------------------|
|---------------------------------------------------------------------------------------|
|--2--2-2-0-0-0-2--2-2-0-0-0-2-2-0------------------------------------------------------|
|--2--2-2-0-0-0-2--2-2-0-0-0-2-2-0---4-4-4-4--5-5-5-------------------------------------|
|--0--0-0-x-x-x-0--0-0-x-x-x-0-0-x---2-2-2-2--3-3-3-------------------------------------|
|---------3-3-3--------3-3-3-----3------------------------------------------------------|

Verse 1 Guitar 2 x2
|---------8p5p0--------8p5p0------------------------------------------------------------|
|--10p8p0-------10p8p0-------10p8p0-0---------------------------------------------------|
|------------------------------------------0--------------------------------------------|
|----------------------------------------2----2~~p0-------------------------------------|
|--------------------------------------3------------------------------------------------|
|---------------------------------------------------------------------------------------|
|                                                                                       |
|---------8p5p0--------8p5p0---------10--8--7-------------------------------------------|
|--10p8p0-------10p8p0-------10p8p0------------8--5-------------------------------------|
|---------------------------------------------------------------------------------------|
|---------------------------------------------------------------------------------------|
|---------------------------------------------------------------------------------------|
|---------------------------------------------------------------------------------------|
|                                                                                       |
|---------8p5p0--------8p5p0------------------------------------------------------------|
|--10p8p0-------10p8p0-------10p8p0-0---------------------------------------------------|
|------------------------------------------0------0-------------------------------------|
|----------------------------------------2------2---0-----------------------------------|
|--------------------------------------3------3-----------------------------------------|
|---------------------------------------------------------------------------------------|
|                                                                                       |
|---------8p5p0--------8p5p0---------10--8--7-------------------------------------------|
|--10p8p0-------10p8p0-------10p8p0------------8--5-------------------------------------|
|---------------------------------------------------------------------------------------|
|---------------------------------------------------------------------------------------|
|---------------------------------------------------------------------------------------|
|---------------------------------------------------------------------------------------|
Verse 2 Guitar 1
|-------------------------0--------|-------------------------|------------7-4-----------|
|-------------------------0--------|-------------------------|----------------7-4-4-/7--|
|--5-5-5-54-7-4--------4-0-5-5-5--|--5-5-5-5-4-7-4---------|--5-5-5-5-----------------|
|--2-2-2-2-------7-7-/8-4---2-2-2--|--2-2-2-2--------7-7-/8--|--2-2-2-2-----------------|
|--3-3-3-3--------------2---3-3-3--|--3-3-3-3----------------|--3-3-3-3-----------------|
|----------------------------------|-------------------------|--------------------------|

Verse 2 Guitar 2
|----------0-----------------------|----------0-3-0-0-0-0-0--|-----------3-0-0-0-0-0-0--|
|----0---0-0-----------------------|----0-0---0-0-0-3---3/5--|----0--0---0-3---0-3/5-0--|
|--0-0-0-0----4-4------2p0---------|--0-0---0----------------|--0-0----0----------------|
|--2-2--------4-4---------2p0-2/4--|--2-----2----------------|--2------2----------------|
|--3----------2-2------------------|--3----------------------|--3-----------------------|
|----------------------------------|-------------------------|--------------------------|

Interlude Guitar 1  x2 (Guitar 2 does some light harmonics)
|---------------------------------------------------------------------------------------|
|---------------------------------------------------------------------------------------|
|---------------------------------------------------------------------------------------|
|--5-5-5-5--5---5-7x7--5---5-5-5--x-x-x-x--5---5-7x7--5---5-5-5-------------------------|
|--5-5-5-5--3---3-5x5--3---3-3-3--x-x-x-x--3---3-5x5--3---3-3-3-------------------------|
|--3-3-3-3-----------------3-3-3--x-x-x-x-----------------------------------------------|
   . . . .  .   . ...  .   . . .  . . . .  .   . ...  .   . . .

Verse 3 Guitar 1
|---------------------------------------------------------------------------------------|
|---------------------------------------------------------------------------------------|
|---------------------------------------------------------------------------------------|
|--5-5-5-5--5---5-7x7--5---5-5-5--x-x-x-x--5---5-7x7--5---5-5-5-------------------------|
|--5-5-5-5--3---3-5x5--3---3-3-3--x-x-x-x--3---3-5x5--3---3-3-3-------------------------|
|--3-3-3-3-----------------3-3-3--x-x-x-x-----------------------------------------------|
|                                                                                       |
|---------------------------------------------------------------------------------------|
|---------------------------------------------------------------------------------------|
|---------------------------------------------------------------------------------------|
|--5-5-5-5-5-5-5-5-5-5-5-5-5-5-5-5-5-5-5-5-5-5-5-5-5-5-5-5-5-5-5-5-5-5-5-5-5-5----------|
|--5-5-5-5-5-5-5-5-5-5-5-5-5-5-5-5-5-5-5-5-5-5-5-5-5-5-5-5-5-5-5-5-5-5-5-5-5-5----------|
|--3-3-3-3-3-3-3-3-3-3-2-2-2-2-2-2-2-2-2-2-3-3-3-3-3-3-3-3-3-2-2-2-2-2-2-2-2-2----------| 

Verse 3 Guitar 2
|--7-8-7--------------7h8p7-------------------------------------------------------------|
|--------8-----7-7----------h8-------------------8-10-12-10-8-10------------------------|
|----------9-9-----9-----------9--------------------------------------------------------|
|---------------------------------------------------------------------------------------|
|---------------------------------------------------------------------------------------|
|---------------------------------------------------------------------------------------|
|                                                                                       |
|--7-8-7--------------7h8p7-------------------------------------------------------------|
|--------8-----7-7----------h8-------------------8-10-12-10-8-10-7-8---7-8--------------|
|----------9-9-----9-----------9-9-----------------------------------9-----7-4-7-9-7-9-4|
|---------------------------------------------------------------------------------------|
|---------------------------------------------------------------------------------------|
|---------------------------------------------------------------------------------------|
|                                                                                       |
|-------------------(7)---------------(7)-----------------------------------------------|
|-------------------------(7)---------------(7)-----------------------------------------|
|---7-9-4~~~~-------------------(5)---------------(5)---(7)-----------------------------|
|---------------------------------------------------------------------------------------|
|---------------------------------------------------------------------------------------|
|---------------------------------------------------------------------------------------|
[ Tab from: http://www.guitaretab.com/h/hot-cross/87109.html ]
Verse 4 Guitar 1
|---------------------------------------------------------------------------------------|
|----------7-8-7-8---------7-8-7-----------7-8-7-8-----7-8-10-8-7-----------------------|
|--7-9-7-9---------7-9-7-9-------9-7-9-7-9---------7-9------------7---------------------|
|---------------------------------------------------------------------------------------|
|---------------------------------------------------------------------------------------|
|---------------------------------------------------------------------------------------|
|                                                                                       |
|-----------------------------------------------------7-8-7-----------------------------|
|----------7-8-7-8---------7-8-7-----------7-8-7-8-10-------10-8-10-8-7-----------------|
|--7-9-7-9---------7-9-7-9-------9-7-9-7-9----------------------------------------------|
|---------------------------------------------------------------------------------------|
|---------------------------------------------------------------------------------------|
|---------------------------------------------------------------------------------------|   

Verse 4 Guitar 2
|----------7-8-7-----------7-8-7-----------7-8-7----------------------------------------|
|------7-8-------8-----7-8-------9-----7-8-------8-7-8-10-8-7-8-------------------------|
|--7-9-------------7-9-------------7-9--------------------------7-----------------------|
|---------------------------------------------------------------------------------------|
|---------------------------------------------------------------------------------------|
|---------------------------------------------------------------------------------------|
|                                                                                       |
|----------7-8-7-----------7-8-7------7-8-7-8-7-----------------------------------------|
|------7-8-------8-----7-8-------8-10-----------10-8-7-8-108--7------------------------|
|--7-9-------------7-9--------------------------------------------7--9------------------|
|---------------------------------------------------------------------------------------|
|---------------------------------------------------------------------------------------|
|---------------------------------------------------------------------------------------|

Verse 5 Guitar 1 
|--0--------0--------0----0----0---0----------------------------------------------------|
|--3--------5--------7----5----3---3----------------------------------------------------|
|--4--------6--------8----6----4---4-----4----------------------------------------------|
|--5--------7--------9----7----5---5-----5----------------------------------------------|
|----------------------------------------3----------------------------------------------|
|---------------------------------------------------------------------------------------|
|  (not needed but it sounds good                                                       |
|--12-0-12-0-12-0-12-0-14-0-14-0-14-0-14-0-15-0-17-0-17-0-17-0-21-0-19-0-19-0-19--------|
|---0----0----0----0----0----0----0----0----0----0----0----0----0----0----0----0--------|
|---------------------------------------------------------------------------------------|
|---------------------------------------------------------------------------------------|
|---------------------------------------------------------------------------------------|
|---------------------------------------------------------------------------------------|

Verse 5 Guitar 2
|-----------0--0--0--0--0--0--0--0-0-0-0------------------------------------------------|
|----------10-10-10-10-12-12-10-10-7-8-7-------8-7--------------------------------------|
|--9-9-9-9-------------------------------9-7-------9------------------------------------|
|--0-0-0-0------------------------------------------------------------------------------|
|---------------------------------------------------------------------------------------|
|---------------------------------------------------------------------------------------|
|                                                                                       |
|--0-0-0-0-0-0-0-0--0-0--0-0--0-0--0-0--0-0--0-0--0-0--0-0--0-0--0-0--00--0-0----------|
|--8-0-8-0-8-0-8-0-10-0-10-0-10-0-10-0-12-0-15-0-15-0-15-0-19-0-17-0-17-0-17-0----------|
|---------------------------------------------------------------------------------------|
|---------------------------------------------------------------------------------------|
|---------------------------------------------------------------------------------------|
|---------------------------------------------------------------------------------------|

Verse 6 Guitar 1
|---------------------------------------------------------------------------------------|
|----------7-8-7-8---------7-8-7-----------7-8-7-8-----7-8-10-8-7-----------------------|
|--7-9-7-9---------7-9-7-9-------9-7-9-7-9---------7-9------------7---------------------|
|---------------------------------------------------------------------------------------|
|---------------------------------------------------------------------------------------|
|---------------------------------------------------------------------------------------|
|                                                                                       |
|---------------------------------------------------------------------------------------|
|--10p8p0-8p7p0-------------------8p7p0-10p8p0-7~~-7-7-8-7------------------------------|
|---------------9p7p0-7p6p0-9p7p0--------------------------9~~-9-9-7-6------------------|
|----------------------------------------------------------------------9-7-5------------|
|---------------------------------------------------------------------------------------|
|---------------------------------------------------------------------------------------|

Verse 6 Guitar 2
|----------7-8-7-----------7-8-7-----------7-8-7----------------------------------------|
|------7-8-------8-----7-8-------9-----7-8-------8-7-8-10-8-7-8-------------------------|
|--7-9-------------7-9-------------7-9--------------------------7-----------------------|
|---------------------------------------------------------------------------------------|
|---------------------------------------------------------------------------------------|
|---------------------------------------------------------------------------------------|
|                                                                                       |
|--10-8-7-8-7----8-----------------------------7-8-7------------------------------------|
|-------------10---10-8-7-8-7-------7-8-7-8-10-------10-8-7-8~~~------------------------|
|-----------------------------9-7-9-----------------------------------------------------|
|---------------------------------------------------------------------------------------|
|---------------------------------------------------------------------------------------|
|---------------------------------------------------------------------------------------|

Verse 5 Guitar 1
|--0--------0--------0----0----0---0----------------------------------------------------|
|--3--------5--------7----5----3---3----------------------------------------------------|
|--4--------6--------8----6----4---4-----4----------------------------------------------|
|--5--------7--------9----7----5---5-----5----------------------------------------------|
|----------------------------------------3----------------------------------------------|
|---------------------------------------------------------------------------------------|
|                                                                                       |
|--12-0-12-0-12-0-12-0-14-0-14-0-14-0-14-0-15-0-17-0-17-0-17-0-21-0-19-0-19-0-19--------|
|---0----0----0----0----0----0----0----0----0----0----0----0----0----0----0----0--------|
|---------------------------------------------------------------------------------------|
|---------------------------------------------------------------------------------------|
|---------------------------------------------------------------------------------------|
|---------------------------------------------------------------------------------------|

Verse 5 Guitar 2
|-----------0--0--0--0--0--0--0--0-0-0-0------------------------------------------------|
|----------10-10-10-10-12-12-10-10-7-8-7-------8-7--------------------------------------|
|--9-9-9-9-------------------------------9-7-------9------------------------------------|
|--0-0-0-0------------------------------------------------------------------------------|
|---------------------------------------------------------------------------------------|
|---------------------------------------------------------------------------------------|
|                                                                                       |
|--0-0-0-0-0-0-0-0--0-0--0-0--0-0--0-0--0-0--0-0--0-0--0-0--0-0--0-0--00--0-0----------|
|--8-0-8-0-8-0-8-0-10-0-10-0-10-0-10-0-12-0-15-0-15-0-15-0-19-0-17-0-17-0-17-0----------|
|---------------------------------------------------------------------------------------|
|---------------------------------------------------------------------------------------|
|---------------------------------------------------------------------------------------|
|---------------------------------------------------------------------------------------|

Verse 7 Guitar 1 second part x2
|-----------------------------------------------------------------|---------------------|
|-----------------------------------------------------------------|---------------------|
|-----------------------------------------------------------------|---------------------|
|-5-5-5-5-5-5-5-5-5-5-5-5-5-5-5-5-5-5-5-5-5-5-5-5-5-5-5-5-5-5-5-5-|-5-5-5--5-5-5-5------|
|-5-5-5-5-5-5-5-5-5-5-5-5-5-5-5-5-5-5-5-5-5-5-5-5-5-5-5-5-5-5-5-5-|-5-5-5--5-5-5-5------|
|-3-3-3-3-3-3-3-3-2-2-2-2-2-2-2-2-3-3-3-3-3-3-3-3-2-2-2-2-2-2-2-2-|-3-3-2--3-3-2-2------|

Verse 7 Guitar 2 first half x3 the second part x2
|-14-14-14-14-14-14-14-14-12-12-12-12-12-12-12-12-|-(7)---------(7)---------------------|
|--0--0--0--0--0--0--0--0--0--0--0--0--0--0--0--0-|-----(7)---------(7)-----------------|
|-------------------------------------------------|---------(5)---------(5)---(7)-------|
|-------------------------------------------------|-------------------------------------|
|-------------------------------------------------|-------------------------------------|
|-------------------------------------------------|-------------------------------------|
Related for Prepare Repair tab