Song name
# A B C D E F G H I J K L M N O P Q R S T U V W X Y Z

Hot Hot Heat - Middle Of Nowhere tab

Artist: Hot Hot Heat
Song: Middle of Nowhere
Album: Elevator (2005)
Tabbed By: Garrett Smith
Tuning: Standard

Yeah, I just looked through and noticed nobody tabbed the solo, so here it is.

Tempo: 140bps

       G5                                                 F5

     E E  S E  S E  E  S E  S E    E  S E  S E  E  S E  S E  
       ^            ^              ^            ^
e|-----7------------7------------|-7------------7------------|
b|---6/8----8----8--8----8----8--|-8----8----8--8----8----8--|
g|---7/9--9-9--9-9--9--9-9--9-9--|-9--9-9--9-9--9--9-9--9-9--|
d|-----9--9-9--9-9--9--9-9--9-9--|-9--9-9--9-9--9--9-9--9-9--|
a|-------------------------------|---------------------------|
E|-------------------------------|---------------------------|

                                                      C5

   E  E  E  E  E  E  E  E  E   E  E  E  E  E  E    E  E
                              
|-15\13-13-13-13-13\12-12-12-|-12-10-10-10-10-10\---------|
|-15\13-13-13-13-13\12-12-12-|-12-10-10-10-10-------------|
|-16\14-14-14-14-14\12-12-12-|----10-10-10-10------14/16--|
|----------------------------|----------------------------|
|----------------------------|----------------------------|
|----------------------------|----------------------------|

                                     

   E   S  E   S  S  S  E   S  E   S  S  S 
let ring-----------------------------------|

|------------15------------------15--------|
|-----------------------------------17-----|
|-17-----17-----17----17-----17--------17--|
|-----17-----------17-----17---------------|
|------------------------------------------|
|------------------------------------------|

                                    G5

   E   S  E   S  S  S  E   S  E   S  S  S 
let ring-----------------------------------|

|------------15------------------15--------|
|-----------------------------------17-----|
|-17-----17-----17----17-----17--------17--|
|-----17-----------17-----17---------------|
|------------------------------------------|
|------------------------------------------|



   E  E  E  E  E  E  E  E     E  E  E  E  Q    Q    
let ring--------------------------------------------|

|-15----15----15----15-----|-15----15----15---------|
|-15----15----15----15-----|-15----15----15---------|
|-17----17----17----17-----|-17----17----17---------|
|----17----17----17----17--|----17----17------------|
|--------------------------|------------------------|
|--------------------------|------------------------|


Any questions? just message me, or Email at NNoodleNose@gmail.com
Tap to rate this tab
# A B C D E F G H I J K L M N O P Q R S T U V W X Y Z