Song name
# A B C D E F G H I J K L M N O P Q R S T U V W X Y Z

Hot Hot Heat - Zero Results tab

Hot Hot Heat - Zero Results
Future Breeds (2010)


Intro 

e|---------------------------------------------------------------------------|
B|---------------------------------------------------------------------------|
G|---------------------------------------------------------------------------|
D|---------------------------------------------------------------------------| x2
A|---------------------------------------------------------------------------|
E|-----3------------6-------8--9---------------------------------------------|


Verse

e|---------------------------------------------------------------------------|
B|---------------------------------------------------------------------------|
G|---------------------------------------------------------------------------|
D|-----5-------4-------3-------2---------------------------------------------| x2
A|-----5-------4-------3-------2---------------------------------------------|
E|-3---3---2---2---1---1---0---0---------------------------------------------|


e|---------------------------------------------------------------------------|
B|---------------------------------------------------------------------------|
G|----4~---------------------------------------------------------------------|
D|----6~---------------------6-----------------------------------------------|
A|----4~---------------------6-----------------------------------------------|
E|---------------------------4-----------------------------------------------|

(very unsure of this bit) ^



Chorus

e|---------------------------------------------------------------------------|
B|---------------------------------------------------------------------------|
G|---------------------------------------------------------------------------|
D|--5555--4444--3333--2222---------------------------------------------------| x2
A|--5555--4444--3333--2222---------------------------------------------------|
E|--3333--2222--1111--0000---------------------------------------------------|
Tap to rate this tab
# A B C D E F G H I J K L M N O P Q R S T U V W X Y Z