Guitaretab - guitar tabs
Song name
# A B C D E F G H I J K L M N O P Q R S T U V W X Y Z

Hot Leg - Trojan Guitar tab

-------------------------------------------------------------------------------
			     Trojan Guitar - Hot Leg
-------------------------------------------------------------------------------
Tabbed by: mr bob
Email: pwn_me@hotmail.com

Hot Leg site: http://teamhotleg.com/
  

This is the intro/main riff for Justin Hawkins' new group Hot Legs song
 Trojan Guitar. Sorry its not quite complete but this is my first tab and
 all i've managed to do so far, Ill update it as soon as I get more done :).
 No one seemed to be tabbing any of their songs and this should be a good 
place to start at least as most of the song is based around this riff. It's
 really similar to the riff for Heroes too so if anything I hope this will 
help you work out more of both the songs for yourself.

Legend:
~ = vrabrato
p = pull off
b = bend
r = release note from bend
h = hammer on
(X) = let ring
/ = slide


  ::Intro::
          A      G  F  G
      E-0-(0)---3------3-3-2--2p0-00-(0)-0---0-----------------------------|
      B-2-(2)---33-1-1-3-3-3--3---32-(2)-2---2-----------------------------|
Drum  G-2-(2)---00-2-200-0-2--2---22-(2)-2---2---(ooooh hummin'...)--------|
intro D-2-(2)---00-3-300-0-0--0----2-(2)-2---2-----------------------------|
      A-0-(0)----2-3-32--2-0--0----0-(0)-0---0-----------------------------|
      E----------3-1-13-------------------3b-------------------------------|

                           [Verse]
    ::Main riff::                             G    D       A
E----------------------------------------------3-2--2p0-00-xx0xx0-x0-0-----|
B----------------------------------------------3-3--3---32-xx2xx2-x2-2-----|
G----------------------------------------5---0-0-2--2---22-xx2xx2-x2-2-----|
D--------------2h4p2-4b5--5r4p2-5-4-5-4-55-3-0-0-0--0---02-xx2xx2-x2-2-----|
A--0---0-0h3h4---------------------------3-3-2-2-0--0----0---0xx0-x0-0-----|
E---3p0------------------------------------1-3------------------------3b---|


                                                G    D       A        G F#?
E----------------------------------------------3-2--2p0-00-x-0x0-x0-0------|
B----------------------------------------------3-3--3---32-x-2x2-x2-2-3--3-|
G----------------------------------------5---0-0-2--2---22-x-2x2-x2-2-0--2-|
D--------------2h4p2-4b5--5r4p2-5-4-5-4-55-3-0-0-0--0---02-x-2x2-x2-2-0--0-|
A--0---0-0h3h4---------------------------3-3-2-2-0--0----0---0-0-x0-002--0-|
E---3p0------------------------------------1-3------------------------3--2-|

                            [Verse]
                            
 ::Main riff::                             G    D       A
E----------------------------------------------3-2--2p0-00-xx0xx0-x0-0-----|
B----------------------------------------------3-3--3---32-xx2xx2-x2-2-----|
G----------------------------------------5---0-0-2--2---22-xx2xx2-x2-2-----|
D--------------2h4p2-4b5--5r4p2-5-4-5-4-55-3-0-0-0--0---02-xx2xx2-x2-2-----|
A--0---0-0h3h4---------------------------3-3-2-2-0--0----0---0xx0-x0-0-----|
E---3p0------------------------------------1-3------------------------3b---|


                                                G    D       A        G F#?
E----------------------------------------------3-2--2p0-00-x-0x0-x0-0------|
B----------------------------------------------3-3--3---32-x-2x2-x2-2-3--3-|
G----------------------------------------5---0-0-2--2---22-x-2x2-x2-2-0--2-|
D--------------2h4p2-4b5--5r4p2-5-4-5-4-55-3-0-0-0--0---02-x-2x2-x2-2-0--0-|
A--0---0-0h3h4---------------------------3-3-2-2-0--0----0---0-0-x0-002--0-|
E---3p0------------------------------------1-3------------------------3--2-|
[ Tab from: http://www.guitaretab.com/h/hot-leg/175108.html ]
  
  ::Bridge::
E--------------------------------------------------------------------------|
B--------------------------------------------------------------------------|
G--------------------------------------------------------------------------|
D--5p4p2-5-2h4p2-5-4-5--2-5p4p2-4-2h4p2h4p2-4--3-2-------------------------|
A-------------------------------------------4--3-2-------------------------|
E-------------------------------------------2--1-0-------------------------|

       
  ::Solo::
E--------------------------------------------------------------7h8h9-------|
B----------------------------------------------------3--1h2----------------|
G----------------------------------------------------------2--------9~-----|
D--2~~------------------------------------2p0--2p0-4-----------------------|
A-----------2h4p2--4b5~-2h5-4-2h4--------2---------------------------------|
E-------3h4----------------------3-3b-3h4----------------------------------|



E--------------------------------------------------------------------------|
B---8h9-9---8--7--6--4h5-3~------------------------------------------------|
G--10--10---9--8-----------------------------------------------------------|
D--------------------------------------------------------------------------|
A--------------------------------------------------------------------------|
E--------------------------------------------------------------------------|



E-----18b19-19-19r18-14----17--15-14-----17--15-14----15-14-12-------------|
B----------------------15-----------14------------------------15b17--------|
G-------------------------------------------------16-----------------------|
D--------------------------------------------------------------------------|
A--------------------------------------------------------------------------|
E--------------------------------------------------------------------------|



E---1515-17-/14------------------------------------------------------------|
B--------------/13-12b13r12-12/13--12--10-10-12----------------------------|
G----------------------------------------------11-----(fast part)----------|
D--------------------------------------------------------------------------|
A--------------------------------------------------------------------------|
E--------------------------------------------------------------------------|
         The next bit of the solo was just way to fast for me to work out         
right now.

                                                           G   D    A
E--------------12~~~-------------------------------------------------------|
B--------------16b17-------------------------------------------------------|
G----------------------------------------------------5---0-----------------|
D--/2-2p0------------5p4p2-5-2h4p2-5-4-5--2-5p4p2-4~-5-3-0--(etc...   )----|
A--------2p0-----------------------------------------3-3-2--(main riff)----|
E-----------0------------------------------------------1-3-----------------|

 
After this is basically the main riff a few times with small alterations and
improvisations over the top. At 03.18 there is an awesome acoustic fag 
ballad with justin singing and a single acoustic guitar. I managed to 
come up with something that sounds like the first bit but its all too fast
and quiet for me to do properly. Ill update it as soon as i get more. :)

  ::Fag ballad::
   A (sort of)
E-------------------------------------------------|
B--------0----------0----------0----------0-------|
G----2-----2-2--2-----2-2--2-----2-2--2-----2-2---|
D--2---2----2-3---3----3-4---4----4-3---3----3----|
A-------------------------------------------------|
E-------------------------------------------------|

	Please approve this and tab your own Hot Leg songs, we really
need to get their hairy goodness tabbed :P



===============================================================================
Related for Trojan Guitar tab
×
Best way to learn
"Trojan Guitar"