Song name
# A B C D E F G H I J K L M N O P Q R S T U V W X Y Z

Hot Leg - Chickens tab

I cant beleive how little hot leg tabs there are on here, i've had to search youtube for
playing it (If you watn to use the tutorials that i used his acount is called
And because i learnt it from him i can't take much credit, i just thought it would be a 
idea to put them into tab form and upload them to ultimate guitar. Here's chickens 
1
'red light fever' - buy the album, it's AWESOME!)

Don't think it's perfect but it's better than nothing.
Sorry, no solo or chorus (i'm sure the chorus the guy on the video played was wrong),
gonna keep looking for the bitsd i don't know yet, feel free to comment with them or
on the bits that i did.

Riff 1.
e|-----2---1-------3-------|
B|-----3---1---1---3-------|
G|--xx-2-x-2-x-0-x-0-------|
D|--xx-0-x-3-x-2-x-0-------|
A|-------------3---2-0-2-0-|
E|-----------------3-------|

Riff 1 X2
Riff 1 palm muted X2
Riff 1 X1

Then...

e|-----crescendo-----------------------------------------------------------|
B|------(get louder)-------------------------------------------------------|
G|-2-2-2-2-2-2-2-2-2-2-2-2-2-----------------------------------------------|
D|-2-2-2-2-2-2-2-2-2-2-2-2-2-----------------------------------------------|
A|-0-0-0-0-0-0-0-0-0-0-0-0-0-----------------------------------------------|
E|-------------------------------------------------------------------------|

VERSE:
(Justins part)
e|-------------------------------------------------------------------------|
B|-------------------------------------------------------------------------|
G|--777777------------999999-----------------------------------------------|
D|--777777-7777-99999-999999-9999-77777------------------------------------|
A|--555555-7777-99999-777777-9999-77777------------------------------------|
E|---------5555-77777--------7777-55555------------------------------------|

..X3 then...

e|----------------------------------------------------------------------|
B|----------------------------------------------------------------------|
G|-9---9----------------------------------------------------------------|
D|-9---9-9-9-9-----7-7---7----------------------------------------------|
A|-7-x-7-9-9-9-x-x-7-7---7----6-----------------------------------------|
E|-------7-7-7-x-x-5-5-x-5-5-7------------------------------------------|

that's all i've got for now. I'l probably update it when i get more, or you could
with the rest.
Tap to rate this tab
# A B C D E F G H I J K L M N O P Q R S T U V W X Y Z