Song name
# A B C D E F G H I J K L M N O P Q R S T U V W X Y Z

Hot Nasties - Invasion Of The Tribbles chords

Highlighted       Show chord diagrams
The whole song consists of E B A B just repeat:

E chord

e----7------|
B----9------|
G----9------|
D----9------|
A----7------|
E----7------|

B chord

e----7------|
B----7------|
G----8------|
D----9------|
A----9------|
E----7------|

A chord

e----5------|
B----5------|
G----6------|
D----7------|
A----7------|
E----5------|

B chord

e----7------|
B----7------|
G----8------|
D----9------|
A----9------|
E----7------|



e----7---------7---------5---------7-|
B----7---------7---------5---------7-|
G----9---------8---------6---------8-|
D----9---------9---------7---------9-|
A----7---------9---------7---------9-|
E----7---------7---------5---------7-|
Tap to rate this tab
 
# A B C D E F G H I J K L M N O P Q R S T U V W X Y Z