Hot Rod Circuit - High Tech Lip Gloss tab

----------------------------------------------------------------------------
			     High Tech Lip Gloss - Hot rod Circuit
----------------------------------------------------------------------------
Tabbed by: Jacob
Email: Morphious99@yahoo.com

Tuning: standard

Verse

"Where Were You When"


e|----------------------------------------------------------------------------|
B|----------------------------------------------------------------------------|
G|----------------------------------------------------------------------------|
D|--------4-------------------------------------------------------------------|
A|---4----2-------------------------------------------------------------------|
E|---3------------------------------------------------------------------------|


chorus

"I Gave My Breath To You"

e|----------------------------------------------------------------------------|
B|----------------------------------------------------------------------------|
G|----14---12---11---13--11--9--11--7-----------------------------------------|
D|----------------------------------------------------------------------------|
A|----12---10---9----11--9---7--9---5-----------------------------------------|
E|----------------------------------------------------------------------------|

Outro

e|----------------------------------------------------------------------------|
B|----------------------------------------------------------------------------|
G|---7----9-----7-------------------------------------------------------------|
D|----------------------------------------------------------------------------|
A|---5----7-----5-------------------------------------------------------------|
E|----------------------------------------------------------------------------|

where was i when he wiped the lip gloss
from his chin i know exactly where you've
 been it's bearing on my weakened mind
and when and where did you decide to suck
the imagery out of life i know exactly what's
gone down it's never going to last forever i
 gave my breath to you it's in everything we
do welli know that i've done wrong but it doesn't
mean that there's no love in this in this broken
heart of mine you take one last breath this time
when you cross that line why should you carry all the weight.


************************************

| /   slide up
| \   slide down
| h   hammer-on
| p   pull-off
| ~   vibrato
| +   harmonic
| x   Mute note
| b   Bend
| pb  Pre-bend
| br  Bend release
| pbr Pre-bend release
| brb Bend release bend

************************************
Tap to rate this tab
 
# A B C D E F G H I J K L M N O P Q R S T U V W X Y Z