Hot Rod Circuit - This Ones For Randy tab

-------------------------------------------------------------------------------
     This Ones For Randy - Hot Rod Circuit
-------------------------------------------------------------------------------
Tabbed by: Jacob
Email: Morphious99@yahoo.com

Tuning:Standard


verse

"I Can't Distinguish"

e|--------------------------------------------------------------------------|
B|--------------------------------------------------------------------------|
G|-----4----7---------------------------------------------------------------|
D|----------------7----5----------------------------------------------------|
A|-----2----5---------------------------------------------------------------|
E|----------------5----3----------------------------------------------------|

Bridge

"Forget All About It"

e|------------------------------------------------------------------------|
B|------------------------------------------------------------------------|
G|------------------------------------------------------------------------|
D|---5------12-----9------------------------------------------------------|
A|---5------12-----9------------------------------------------------------|
E|---3------10-----7------------------------------------------------------|

Chorus

"What You Crying For"

e|----------------------------------------------------------------------------|
B|----------------------------------------------------------------------------|
G|----------------4------7----------------------------------------------------|
D|---5-----7------------------------------------------------------------------|
A|----------------2------5----------------------------------------------------|
E|---3-----5------------------------------------------------------------------|

I can't distinguish
The messes I've made
The problems I've missed
And you know
It takes a lot ot throw it all away
And forget all about it
I can't believe these chances we take,
The friends that we've made
And you know it takes a lot to throw it all away and forget All about it
What you're crying for - this time

We can take no more
So shut up and dry your crying eyes


************************************

| /   slide up
| \   slide down
| h   hammer-on
| p   pull-off
| ~   vibrato
| +   harmonic
| x   Mute note
| b   Bend
| pb  Pre-bend
| br  Bend release
| pbr Pre-bend release
| brb Bend release bend
Tap to rate this tab
 
# A B C D E F G H I J K L M N O P Q R S T U V W X Y Z