Hot Rod Circuit - The Pharmacist tab

----------------------------------------------------------------------------
			                 The Pharmacist - Hot Rod Circuit
----------------------------------------------------------------------------
Tabbed by: Jacob
Email: morphious99@yahoo.com

Tuning: standard

There are two guitars on this song but tabbed out one.
I also know the bridge isn't 100% so if u have corrections send em.
I'm assuming the chord for after he says "Everybody makes mistakes" is -A- however, it 
sound 100% correct so please e-mail if you know it so i can update this tab.

"lie awake wondering" Clean
e|----------------------------------------------------------------------------|
B|----------------------------------------------------------------------------|
G|----------------------------------------------------------------------------|
D|----------------------------------------------------------------------------|
A|---7--7--4--2---------------------------------------------------------------|
E|---5--4--2--0---------------------------------------------------------------|

"You let me down"    Distorted
e|----------------------------------------------------------------------------|
B|----------------------------------------------------------------------------|
G|----------------------------------------------------------------------------|
D|----------------------------------------------------------------------------|
A|---7---4---2----------------------------------------------------------------|
E|---5---2---0----------------------------------------------------------------|

 X8 Clean

"Getting on with my life"

e|--2--4---5------------------------------------------------------------------|
B|----------------------------------------------------------------------------|
G|----------------------------------------------------------------------------|
D|----------------------------------------------------------------------------|
A|----------------------------------------------------------------------------|
E|----------------------------------------------------------------------------|

e|----------------------------------------------------------------------------|
B|----------------------------------------------------------------------------|
G|----------------------------------------------------------------------------|
D|---7---14---12--11--9-------------------------------------------------------|
A|----------------------------------------------------------------------------|
E|----------------------------------------------------------------------------|


Distorted

e|----------------------------------------------------------------------------|
B|----------------------------------------------------------------------------|
G|----------------------------------------------------------------------------|
D|----------------------------------------------------------------------------|
A|---7----4----2--------------------------------------------------------------|
E|---5----2----0--------------------------------------------------------------|

Bridge

e|----------------------------------------------------------------------------|
B|----------------------------------------------------------------------------|
G|---------------------9---14-------------------------------------------------|
D|----------------------------------------------------------------------------|
A|--9---7---14---12----7---12-------------------------------------------------|
E|--7---5---12---10-----------------------------------------------------------|

e|----------------------------------------------------------------------------|
B|----------------------------------------------------------------------------|
G|----6----9----4----7---6----------------------------------------------------|
D|----------------------------------------------------------------------------|
A|----4----7----2----5---4----------------------------------------------------|
E|----------------------------------------------------------------------------|


Lie awake, wondering, If things could have been much different.
Second chance, what's become of a friendship if you can call this one?
Stayed in touch, stood behind, while I gave you space
And you invade mine while everyone makes mistakes,

[Chorus]
You let me down for the last time, truth prevails
And theres nothing you can hide and I wash my hands of you,
Getting on with my life.

Getting on with my life...
I'm getting on with my life...

Wanna call and catch up. but no matter what know you still suck.
Took the drugs from my friends, whatever were you thinkin?
Stayed in touch, stood behind, while I gave you space,
And you invade mine while every one makes mistakes....

[Chorus]

I'm getting on with my life!

And the shit remains the same it makes no difference
In this stupid world we know.

And the shit remains the same It makes no difference
In this stupid world we know.

[Chorus x2]
Tap to rate this tab
 
# A B C D E F G H I J K L M N O P Q R S T U V W X Y Z