Song name
# A B C D E F G H I J K L M N O P Q R S T U V W X Y Z

Hot Rod Circuit - This Is Not The Time Or Place tab

This is not exact strumming, just the general idea.

|Intro/Verse|

    B     G          D
e|-------------------------------------------|
b|-------------------------------------------|
g|------------------11-11-11-11-11-11-11-11--|
d|--0-0-0-0-0-0-0-0--0--0--0--0--0--0--0--0--|
a|--9-9-0-5-5-5-5-0--9--9--9--9--9--9--9--9--|
d|--9-9-0-5-5-5-5-0--0--0--0--0--0--0--0--0--|


|Chorus|
    G               D                B          A       G
e|-----------------------------------------------------------------------|
b|-----------------------------------------------------------------------|
g|--7-7-7-7-7-7-7-7-7-7-7-7-7-7-7-7-11-11-11-11-9-9-9-9-7-7-7-7-7-7-7-7--|
d|--5-5-5-5-5-5-5-5-0-0-0-0-0-0-0-0--9--9--9--9-7-7-7-7-5-5-5-5-5-5-5-5--|
a|--5-5-5-5-5-5-5-5-0-0-0-0-0-0-0-0--9--9--9--9-7-7-7-7-5-5-5-5-5-5-5-5--|
d|--5-5-5-5-5-5-5-5-0-0-0-0-0-0-0-0--9--9--9--9-7-7-7-7-5-5-5-5-5-5-5-5--|

Lead Guitar

|Verse|

e|-10-10-10------------------------------------|
b|----------12-12-12-12-12-10-10-10-7-7-7-7-7--|
g|---------------------------------------------|
d|---------------------------------------------|
a|---------------------------------------------|
e|---------------------------------------------|

e|-10-10-10----------------10-10-10-10-10-10-10-10--|
b|----------12-12-12-12-12--------------------------|
g|--------------------------------------------------|
d|--------------------------------------------------|
a|--------------------------------------------------|
e|--------------------------------------------------|

|Chorus|

e|--------------------------------------------|
b|--------------------------------------------|
g|-11-11-11-11-11-11-11-11-11/9-9-9-9-9-9-9-9-|
d|--------------------------------------------|
a|--------------------------------------------|
e|--------------------------------------------|


e|---------------------------------|
b|---------------------------------|
g|-7-7-7-7-7-7-7-7-7-7-7-7-7-7-7-7-|
d|---------------------------------|
a|---------------------------------|
e|---------------------------------|
Tap to rate this tab
# A B C D E F G H I J K L M N O P Q R S T U V W X Y Z