Song name
# A B C D E F G H I J K L M N O P Q R S T U V W X Y Z

Hot Rod Circuit - Consumed By Laziness tab

Name - Damian Winters

Tab - Consumed BY Laziness
Band - Hot Rod Circuit

Tuning - D (all strings down one note, not just the first one)

*I figured this out in 20 minutes by ear and I found that the songs on this album are
all in D tuning so if anyone wants to attempt a different song retune your guitar.
This is the background part of the song I'm still working on the main part.  The
intro my be a little wrong but i've played in 6+ different ways so figure something
out.

Intro
-----------------------------------------------------------------|
-----------------------------------------------------------------|
-----------------------------------------------------------------|
-----------------------------------------------------------------|
------------------------2-2---2-4-4-4-2-------2-4-4-4-2-4--------|
5-5-5-4-0-0-0-4-5-5-5-4-----4-----------4-4-4--------------0-2-4-|

Chorus
-------------|
-------------|
9------------|
9-9-7--------|
7-9-7--------|
7-7-5--------|  *figure out the strumming it's not hard.

Bridge
------------------------------------------------------------|
------------------------------------------------------------|
------------------------------------------------------------|
------------------------------------------------------------|
------------------------------------------------------------|
0-0-12-12-9-9-7-7-4-4-4-5-0---12-12-11-11-9-9-7-7-4-4-4-9-7-|
Tap to rate this tab
# A B C D E F G H I J K L M N O P Q R S T U V W X Y Z