Song name
# A B C D E F G H I J K L M N O P Q R S T U V W X Y Z

Hot Water Music - Trusty tab

  hot water music
  trusty chords


  intro and verses

  guitar 1
  e------------------------------------|
  b------------------------------------|
  g--777-777-777-777-777-777-777-777---|   * = string mute
  d--777-777-777-777-777-777-777-777---|
  a--555-555-555-555-***-***-***-***---|
  e------------------777-777-555-555---|

  guitar 2
  e------------------------------------|
  b------------------------------------|
  g--777------------444----------------|
  d--777------------444----------------|
  a--555------------222----------------|
  e------------------------------------|

  guitar 3 little riff

  e----------5-let ring--|
  b--5/7/5---------------|
  g--------7-------------|
  d----------------------|
  a----------------------|
  e----------------------|

  last bit of verses both guitars
  e---------------------------|
  b---------------------------|
  g--77777777777--5555555555--|
  d--77777777777--5555555555--|
  a--55555555555--3333333333--|
  e---------------------------|

  chorus guitar 1
  e------------------------------------------------------|
  b------------------------------------------------------|
  g--77777777777-----------------------------------------|
  d--77777777777--999999999999--77777777777-55555555555--|
  a--55555555555--999999999999--77777777777--5555555555--|
  e---------------777777777777--55555555555--3333333333--|

  chorus guitar 2
  e-----------------------------------------/= hammer ons and pull offs------|
  b-----------------------------------------    not slides-------------------|
  g-------11-----14-------11/14-14/11----------------------------------------|
  d--11/14--14-11----11/14-----------14/11-----------------------------------|
  a--------------------------------------------------------------------------|
  e--------------------------------------------------------------------------|

  e-------------------------------------------------------------------------|
  b-------------------------------------------------------------------------|
  g-------------------------------------------------------------------------|
  d--14/11-14/11-14/11-14/11-14/11-14/11-14/11-14/11---12/11-12/11-12/11----|
  a-------------------------------------------------------------------------|
  e-------------------------------------------------------------------------|

  e----------------------------------|
  b----------------------------------|     thats about it i think
  g----------------------------------|     any questions suggestions or abuse
  d--12/11-12/11-12/11-12/11-12/11---|     send to glennr.82@hotmail.com
  a----------------------------------|
  e----------------------------------|
Tap to rate this tab
# A B C D E F G H I J K L M N O P Q R S T U V W X Y Z