Song name
# A B C D E F G H I J K L M N O P Q R S T U V W X Y Z

Hot Water Music - Moonpies For Misfits tab

-------------------------------------------------------------------------------
	             Moonpies For Misfits - Hot Water Music
-------------------------------------------------------------------------------

Tabbed By : explsnofsound
e-mail: squashbucket70@yahoo.com

Tuning: Standard


Verse x10 (On the 10th time, play an open A instead of an open E)
G|----------------7/6---------9----------------------------------------------|
D|--------9/7-------------7/9------------------------------------------------|
A|--0-0-0-----0-0-----0-0----------------------------------------------------|
E|------------------------------0--------------------------------------------|

Chorus
G|---------------------------------------------------------------------------|
D|--------7-6--------------------00-0-000-0-000-0--0-0-0---------------------|
A|--9-9-9-----9--7-7-7/14-14-14----------------------------------------------|
E|---------------------------------------------------------------------------|

G|---------------------------------------------------------------------------|
D|--------7-6-------------------0-0-0-7-6---0-0-0-7-6-9----------------------|
A|--9-9-9-----9--7-7-7/14-14-14-----------9----------------------------------|
E|---------------------------------------------------------------------------|

G|---------------------------------------------------------------------------|
D|--------7-6----------------------------------------------------------------|
A|--9-9-9-----9--7-7-7/14-14-14--55-5-555-5-555-5-55/9-7-5-------------------|
E|---------------------------------------------------------------------------|

G|---------------------------------------------------------------------------|
D|--------7-6-------------------0~~------------------------------------------|
A|--9-9-9-----9--7-7-7/14-14-14----------------------------------------------|
E|---------------------------------------------------------------------------|


Repeat Verse 8x


Repeat Chorus, except on the last section, where you should play the notes in time with 
drum kicks. End the chorus like this...
G|---------------------------------------------------------------------------|
D|---------------------------------------------------------------------------|
A|-5-5-5-5-5-5-4-4-4-2-2-2---------------------------------------------------|
E|---------------------------------------------------------------------------|

Post-Chorus 4x (I'm not putting the exact timing of the notes, its not that hard to 
out on your own)
G|---------------------------------------------------------------------------|
D|---------------------------------------------------------------------------|
A|-0-0-0-0-0-0-2-2-2-4-4-4-------------5-5-5-5-4-2---------------------------|
E|-------------------------2-2-2-2-2-2---------------------------------------|

Bridge 4x
G|---------------------------------------------------------------------------|
D|---------------------------------------------------------------------------|
A|---------------------------5-4-0-5-4-0-5-4-0-5/7-7-7-----------------------|
E|-2-2-2/5-4-2--0-0-0-7-7-7--------------------------------------------------|

Bridge fill (3rd time)
G|---------------------------------------------------------------------------|
D|---------------------------------------------------------------------------|
A|---------------------------5-4-0-5-4-0-5-4-0-5/7-5-0-----------------------|
E|-2-2-2/5-4-2--0-0-0-7-7-7--------------------------------------------------|

Bridge fill (4th time)
G|---------------------------------------------------------------------------|
D|---------------------------------------------------------------------------|
A|--------------------------5-4-0-5-4-0-5-4-0-5-4-0--------------------------|
E|-2-2-2/5-4-2--0-0-0-7-7-7--------------------------------------------------|

Outro 4x                                   4th time, finish the song on an A
G|-----------------------------2--2--2--2-|----------------------------------|
D|----------------------------2--2--2--2--|----------------------------------|
A|--2-2-2-2-2-4-5-5-5-5-4-2--0--0--0--0---|--2-2-2-2-2-4-5-5-5-5-4-2-0~~-----|
E|----------------------------------------|----------------------------------|

| /  slide up
| \  slide down
| h  hammer-on
| p  pull-off
| ~  vibrato
| +  harmonic
| x  Mute note
===============================================================================
Tap to rate this tab
# A B C D E F G H I J K L M N O P Q R S T U V W X Y Z