Song name
# A B C D E F G H I J K L M N O P Q R S T U V W X Y Z

Hot Water Music - My Little Monkey Wrench tab

My Little Monkey wrench
Hot Water Music

Intro
e|-----------------------------------------------------------------------|
B|-----------------------------------------------------------------------|
G|-------5----------------5----------------------------------------------|
D|--7----5---3---5---7----5---3----3-------------------------------------|
A|--7----3---3---5---7----3---3----3-------------------------------------|
E|--5--------1---3---5--------1----1-------------------------------------|

intro solo
e|--------3--3--5--------------------------------------------------------|
B|--/5--5---------5-5---3-5-3-1-1--1h3p1--1---1h3p1----------------------|
G|-------------------------------------------------4---4h5p4-------------|
D|-----------------------------------------------------------5~----------|
A|-----------------------------------------------------------------------|
E|-----------------------------------------------------------------------|

verse
e|-----------------------------------------------------------------------|
B|-----------------------------------------------------------------------|
G|-----------------------------------------------------------------------|
D|--7----2----3----7----2-----3-----3------------------------------------|
A|--7----2----3----7----2-----3-----3------------------------------------|
E|--5----0----1----5----0-----1-----1------------------------------------|

chorus
e|-----------------------------------------------------------------------|
B|-----------------------------------------------------------------------|
G|-------------7----------------------7-----7----------------------------|
D|--7-----3----7----7-----7-----3-----7-----7----------------------------|
A|--7-----3----5----7-----7-----3-----5-----5----------------------------|
E|--5-----1---------5-----5-----1----------------------------------------|

end
e|-----------------------------------------------------------------------|
B|-----------------------------------------------------------------------|
G|-----------------------------------------------------------------------|
D|--7---7--x--x---7\-----------------------------------------------------|
A|--7---7--x--x---7\-----------------------------------------------------|
E|--5---5--x--x---5\-----------------------------------------------------|

************************************

| /   slide up
| \   slide down
| h   hammer-on
| p   pull-off
| ~   vibrato
| +   harmonic
| x   Mute note
| b   Bend
| pb  Pre-bend
| br  Bend release
| pbr Pre-bend release
| brb Bend release bend

************************************
Tap to rate this tab
# A B C D E F G H I J K L M N O P Q R S T U V W X Y Z