Song name
# A B C D E F G H I J K L M N O P Q R S T U V W X Y Z

Hot Water Music - Paid In Full tab

Hot Water Music - Paid in full

Album: Exister
Instrument: Guitar
Tuning: eBGDAE

Tabbed By: Rolf Oslo


Intro

e||----------------|
B||----------------|
G||-7-7---7-7---7--|
D||-7-7---7-7---7--|
A||-5-5---5-5---5--|
E||----------------|

e||-------------------------------------------------------------------|
B||-------------------------------------------------------------------|
G||-7-7-7-7-7-7---10-10-10-10-10-10-----------------------------------|
D||-7-7-7-7-7-7---10-10-10-10-10-10---8-8-8-8-8-8-8-8-5-5-5-5-5-5-5-5-|
A||-5-5-5-5-5-5---8--8--8--8--8--8----8-8-8-8-8-8-8-8-5-5-5-5-5-5-5-5-|
E||-----------------------------------6-6-6-6-6-6-6-6-3-3-3-3-3-3-3-3-| x 2


Verse

e||-----------------------|
B||-----------------------|
G||-7---------------------|
D||-7----8-----5-----8----|
A||-5----8-----5-----8----|
E||------6-----3-----6----| x 2

e||------------------------------------------------|
B||------------------------------------------------|
G||-7-7-7-7-7--------------------------------------|
D||-7-7-7-7-7---8-8-8-8-8---5-5-5-5-5---8-8-8-8-8--|
A||-5-5-5-5-5---8-8-8-8-8---5-5-5-5-5---8-8-8-8-8--|
E||-------------6-6-6-6-6---3-3-3-3-3---6-6-6-6-6--| x 2


Chorus

e||---------------------------------------------------|
B||---------------------------------------------------|
G||-7-7-----------------------------------------------|
D||-7-7--8-8--3-3--8-8--3-3-3-3-3-3-3-3-5-5-5-5-5-5-5-|
A||-5-5--8-8--3-3--8-8--3-3-3-3-3-3-3-3-5-5-5-5-5-5-5-|
E||------6-6--1-1--6-6--1-1-1-1-1-1-1-1-3-3-3-3-3-3-3-|

e||---------------------------------------------------|
B||---------------------------------------------------|
G||-7-7-----------------------------------------------|
D||-7-7--8-8--3-3--8-8--5-5-5-5-5-5-5-8-8-8-8-8-8-8-8-|
A||-5-5--8-8--3-3--8-8--5-5-5-5-5-5-5-8-8-8-8-8-8-8-8-|
E||------6-6--1-1--6-6--3-3-3-3-3-3-3-6-6-6-6-6-6-6-6-|

e||----------------|
B||----------------|
G||-7-7---7-7---7--|
D||-7-7---7-7---7--|
A||-5-5---5-5---5--|
E||----------------|


Verse

e||-----------------------|
B||-----------------------|
G||-7---------------------|
D||-7----8-----5-----8----|
A||-5----8-----5-----8----|
E||------6-----3-----6----| x 2

e||------------------------------------------------|
B||------------------------------------------------|
G||-7-7-7-7-7--------------------------------------|
D||-7-7-7-7-7---8-8-8-8-8---5-5-5-5-5---8-8-8-8-8--|
A||-5-5-5-5-5---8-8-8-8-8---5-5-5-5-5---8-8-8-8-8--|
E||-------------6-6-6-6-6---3-3-3-3-3---6-6-6-6-6--| x 2


Chorus

e||---------------------------------------------------|
B||---------------------------------------------------|
G||-7-7-----------------------------------------------|
D||-7-7--8-8--3-3--8-8--3-3-3-3-3-3-3-3-5-5-5-5-5-5-5-|
A||-5-5--8-8--3-3--8-8--3-3-3-3-3-3-3-3-5-5-5-5-5-5-5-|
E||------6-6--1-1--6-6--1-1-1-1-1-1-1-1-3-3-3-3-3-3-3-|

e||---------------------------------------------------|
B||---------------------------------------------------|
G||-7-7-----------------------------------------------|
D||-7-7--8-8--3-3--8-8--5-5-5-5-5-5-5-8-8-8-8-8-8-8-8-|
A||-5-5--8-8--3-3--8-8--5-5-5-5-5-5-5-8-8-8-8-8-8-8-8-|
E||------6-6--1-1--6-6--3-3-3-3-3-3-3-6-6-6-6-6-6-6-6-|

e||---------------------------------------------------|
B||---------------------------------------------------|
G||-7-7-----------------------------------------------|
D||-7-7--8-8--3-3--8-8--3-3-3-3-3-3-3-3-5-5-5-5-5-5-5-|
A||-5-5--8-8--3-3--8-8--3-3-3-3-3-3-3-3-5-5-5-5-5-5-5-|
E||------6-6--1-1--6-6--1-1-1-1-1-1-1-1-3-3-3-3-3-3-3-|

e||---------------------------------------------------|
B||---------------------------------------------------|
G||-7-7-----------------------------------------------|
D||-7-7--8-8--3-3--8-8--5-5-5-5-5-5-5-8-8-8-8-8-8-8-8-|
A||-5-5--8-8--3-3--8-8--5-5-5-5-5-5-5-8-8-8-8-8-8-8-8-|
E||------6-6--1-1--6-6--3-3-3-3-3-3-3-6-6-6-6-6-6-6-6-|

Break

e||----------------------|
B||----------------------|
G||-7----5---------------|
D||-7----5----8----3-----|
A||-5----3----8----3-----|
E||-----------6----1--(3)| x 2

e||--------------------|----------------|
B||--------------------|----------------|
G||-7----5-------------|----------------|
D||-7----5----8----3---|-5-5---5-5--5-5-|
A||-5----3----8----3---|-5-5---5-5--5-5-|
E||-----------6----1---|-3-3---3-3--3-3-|


Chorus

e||---------------------------------------------------|
B||---------------------------------------------------|
G||-7-7-----------------------------------------------|
D||-7-7--8-8--3-3--8-8--3-3-3-3-3-3-3-3-5-5-5-5-5-5-5-|
A||-5-5--8-8--3-3--8-8--3-3-3-3-3-3-3-3-5-5-5-5-5-5-5-|
E||------6-6--1-1--6-6--1-1-1-1-1-1-1-1-3-3-3-3-3-3-3-|

e||---------------------------------------------------|
B||---------------------------------------------------|
G||-7-7-----------------------------------------------|
D||-7-7--8-8--3-3--8-8--5-5-5-5-5-5-5-8-8-8-8-8-8-8-8-|
A||-5-5--8-8--3-3--8-8--5-5-5-5-5-5-5-8-8-8-8-8-8-8-8-|
E||------6-6--1-1--6-6--3-3-3-3-3-3-3-6-6-6-6-6-6-6-6-|
e||---------------------------------------------------|

B||---------------------------------------------------|
G||-7-7-----------------------------------------------|
D||-7-7--8-8--3-3--8-8--3-3-3-3-3-3-3-3-5-5-5-5-5-5-5-|
A||-5-5--8-8--3-3--8-8--3-3-3-3-3-3-3-3-5-5-5-5-5-5-5-|
E||------6-6--1-1--6-6--1-1-1-1-1-1-1-1-3-3-3-3-3-3-3-|

e||---------------------------------------------------|
B||---------------------------------------------------|
G||-7-7-----------------------------------------------|
D||-7-7--8-8--3-3--8-8--5-5-5-5-5-5-5-8-8-8-8-8-8-8-8-|
A||-5-5--8-8--3-3--8-8--5-5-5-5-5-5-5-8-8-8-8-8-8-8-8-|
E||------6-6--1-1--6-6--3-3-3-3-3-3-3-6-6-6-6-6-6-6-6-|

e||---------------|
B||---------------|
G||-7-7---7-7-----|
D||-7-7---7-7-----|
A||-5-5---5-5-----|
E||---------------|

Tap to rate this tab
# A B C D E F G H I J K L M N O P Q R S T U V W X Y Z