Hothouse Flowers - Thing Of Beauty tab

Band: Hothouse Flowers
Song: Thing of Beauty
The band's official website is: http://www.hothouseflowers.com/

Intro:
e|-----------------------------------------------------------------|
B|8--6---6--8--8--6--6--8---8--6---6--8--8--6---6--8--8--6---6--8--|
G|-----9------------9------------9------------9------------9-------|
D|-----------------------------------------------------------------|
A|-----------------------------------------------------------------|
E|-----------------------------------------------------------------|

e|---------------------------------------|
B|8--6---6--8--8--6--6--8---8--6---6--8--|
G|-----9------------9------------9-------|
D|---------------------------------------|
A|---------------------------------------|
E|---------------------------------------|

Then:
e|----------|
B|8-8-8-8-8-|
G|----------|
D|----------|
A|----------|
E|----------|

Repeat till end of song.
Tap to rate this tab
 
# A B C D E F G H I J K L M N O P Q R S T U V W X Y Z