Song name
# A B C D E F G H I J K L M N O P Q R S T U V W X Y Z

Hotrocks - Jealousy tab

Intro/Outro Riff
e -------------------------------------------------
b -------------------------------------------------
g -------------------------------------------------
d -----------7-7-7------------7-7-7-----------7-7-7
a 5-5-5---5-5-5----5-5-5---5-5-5---5-5-5---5-5-5---
E ---7-7-7------------7-7-7-----------7-7-7--------

Verse Riff
e ------------------------------------------------------------
b ------------------------------------------------------------
g ------4-4-------6-6-------4-4-------6-6-------4-4-------6-6-
d -5-5-------5-5------5-5-------5-5--------5-5-------5-5------
a -----2-2-2-----4-4-4-----2-2-2-----4-4-4-----2-2-2-----4-4-4
E 3-3-3-----3-3-3-----3-3-3-----3-3-3-----3-3-3-----3-3-3-----

Chorus Power-Chords

e --------------------------------------------------------------
b --------------------------------------------------------------
g --------------5-5-5-5-5-5-5-7-7-7-7-7-7-7---------------------
d 5-5-5-5-5-5-5-5-5-5-5-5-5-5-7-7-7-7-7-7-7---------------------
a 5-5-5-5-5-5-5-3-3-3-3-3-3-3-5-5-5-5-5-5-5-10-10-10-10-10-10-10
E 3-3-3-3-3-3-3-----------------------------8--8--8--8--8--8--8-
Tap to rate this tab
 
# A B C D E F G H I J K L M N O P Q R S T U V W X Y Z