Song name
# A B C D E F G H I J K L M N O P Q R S T U V W X Y Z

Houkago Tea Time - No Thank You tab

Intro

||------------------------------------------------------||
||------------------------------------------------------||
||-----7-5-5-9-7-7-10-9-9-12-10-10-7-9-9-5-7-7-5-7------||
||-2-2-----------------------------------------5-7------||
||-2-2-----------------------------------------3-5------||
||-0-0--------------------------------------------------||


Verse

||------------------------------------------||
||------------------------------------------||
||-9-7--------------------------------------||
||-9-7-7-6-7-6-7-6--------------------------||
||-7-5-7------------------------------------||
||-----5------------------------------------||


Bridge

||-------------------------------------------||
||------8-787--------------------------------||
||-9----------9-76-9-------------------------||
||-9-7---------------------------------------||
||-7-7---------------------------------------||
||---5---------------------------------------||

||-------------------------------------------||
||------8-787--------------------------------||
||-9----------9-76-9-------------------------||
||-9-7---------------------------------------||
||-7-7---------------------------------------||
||---5---------------------------------------||

||------------------------------------------||
||------------------------------------------||
||-9--------4-5-7-9-------------------------||
||-9-5-7----4-5-7-9-------------------------||
||-7-5-7----2-3-5-7-------------------------||
||---3-5------------------------------------||


Chorus

||------------------------------------------||
||------------------------------------------||
||-5-7---4----5-7-------4-------------------||
||-5-7-5-4----5-7-2-4-5-4-------------------||
||-3-5-5-2----3-5-2-4-5-2-------------------||
||-----3----------0-2-3---------------------||

||------------------------------------------||
||------------------------------------------||
||-5-7---9----------------------------------||
||-5-7-9-9-7-9------------------------------||
||-3-5-9-7-7-9------------------------------||
||-----7---5-7------------------------------||


Rep Intro

||------------------------------------------------------||
||------------------------------------------------------||
||-----7-5-5-9-7-7-10-9-9-12-10-10-7-9-9-5-7-7-5-7------||
||-2-2-----------------------------------------5-7------||
||-2-2-----------------------------------------3-5------||
||-0-0--------------------------------------------------||

Verse

||-------------------9-7-9-----------7-5-7-------------||
||-------------------7-7-7-----------5-5-5-------------||
||-9-7---------------7-7-7-----------5-5-5-------------||
||-9-7-7-6-7-6-7-6---7-7-7-6-7-6-7---5-5-5-6-7-6-7-----||
||-7-5-7-----------------------------------------------||
||-----5-----------------------------------------------||

Bridge

||-------------------------------------------||
||------8-787--------------------------------||
||-9----------9-76-9-------------------------||
||-9-7---------------------------------------||
||-7-7---------------------------------------||
||---5---------------------------------------||

||-------------------------------------------||
||------8-787--------------------------------||
||-9----------9-76-9-------------------------||
||-9-7---------------------------------------||
||-7-7---------------------------------------||
||---5---------------------------------------||

||------------------------------------------||
||------------------------------------------||
||-9--------4-5-7-9-------------------------||
||-9-5-7----4-5-7-9-------------------------||
||-7-5-7----2-3-5-7-------------------------||
||---3-5------------------------------------||

Rep Chorus

Interlude

||----------------3-----------------3-----------3-------5---5-7-7-||
||-3-------3--------------3-----3/5-------4---4---4---6---6-6-8-8-||
||-4-----4------4-------4-----4---------5---5-------7-------7-9-9-||
||-5---5------5-------5-----5---------5---------------------------||
||-3-3------3-------3---------------------------------------------||
||----------------------------------------------------------------||

Solo

||---------------------------------------------------||
||-9--17--9--17-9--17-------3-5-7-------2-3-5--/17/9-||
||--------------------3-5-7-------2-3-5--------------||
||---------------------------------------------------||
||---------------------------------------------------||
||---------------------------------------------------||

Bridge

||-------------------------------------------||
||------8-787--------------------------------||
||-9----------9-76-9-------------------------||
||-9-7---------------------------------------||
||-7-7---------------------------------------||
||---5---------------------------------------||

||-------------------------------------------||
||------8-787--------------------------------||
||-9----------9-76-9-------------------------||
||-9-7---------------------------------------||
||-7-7---------------------------------------||
||---5---------------------------------------||

||------------------------------------------||
||------------------------------------------||
||-9--------4-5-7-9-x-9---------------------||
||-9-5-7----4-5-7-9-x-9---------------------||
||-7-5-7----2-3-5-7-x-7---------------------||
||---3-5------------------------------------||

Rep Chorus
Tap to rate this tab
 
# A B C D E F G H I J K L M N O P Q R S T U V W X Y Z