Song name
# A B C D E F G H I J K L M N O P Q R S T U V W X Y Z

Houndmouth - Krampus chords

Highlighted       Show chord diagrams
CAPO 1

G riff
e-----------------------------------------------------------|
b-----------------0-----------------------------------------|
g------0----------------------------------------------------|
d-----------------------------------------------------------|
a----------0h2----------------------------------------------|
E--3--------------------------------------------------------|

C riff
e-----------------------------------------------------------|
b----------------1------------------------------------------|
g------0----------------------------------------------------|
d----------0h2----------------------------------------------|
a--3--------------------------------------------------------|
E-----------------------------------------------------------|

G riff
I see the light shining on me
C riff                                G riff
I'm coming home for the winter (x4)

(Female Vocalist) Sings the lyrics but at a different time and melody here during second time:

G
I see the light shining on me
C                                    G
I'm coming home for the winter (x2)

G riff
I see the light shining on me
C riff                           G riff
I'm coming home for dinner (x1)
Tap to rate this tab
 
# A B C D E F G H I J K L M N O P Q R S T U V W X Y Z