Song name
# A B C D E F G H I J K L M N O P Q R S T U V W X Y Z

Hour Cast - Freeze tab

This Tab Is One That Was Hard To Figure Out Because Of The Static And Type Of
Hours' Guitarist. But After A Bit Of Workin On It I Finally Got The Guitar Part To Freeze!


Guitar 1 C Drop (C G C F A D)
Guitar 2 C Drop (C G C F A D)

The Intro is the same as verse 1 and ending

Intro     Faded Pictures Of Live We Liveddo You Remember?

Guitar 1
D--------------------------------------------  |
A--------------------------------------------  |
F--------------------------------------------  |
C-0----0-----3----3-----5----5-----8----8----  |
G-0--0-0-0-0-3--3-3-3-3-5--5-5-5-5-8--8-8-8-8  |
C-0--0-0-0-0-2--2-2-2-2-4--4-4-4-4-7--7-7-7-7  |
                                               |
Guitar 2                                       |
D--------------------------------------------   \
A--------------------------------------------    \
F--------------------------------------------     \
C-0----0-----3----3-----5----5-----8----8----      \
G-0--0-0-0-0-3--3-3-3-3-5--5-5-5-5-8--8-8-8-8       \
C-0--0-0-0-0-2--2-2-2-2-4--4-4-4-4-7--7-7-7-7        \
                                                      \
Guitar 1                                               |
D--------------------------------------------          |
A--------------------------------------------          |
F--------------------------------------------          |--- x3
C--------------------------------------------          |
G------5-0-0-8--------------5-0-0-8----------          |
C-0--0---------0-2-3-2-0--0---------0-2-3-2-0         /
                                                     /
Guitar 2                                            /
D--------------------------------------------      /
A--------------------------------------------     /
F--------------------------------------------    /
C--------------------------------------------   /
G------5-0-0-8--------------5-0-0-8----------  | 
C-0--0---------0-2-3-2-0--0---------0-2-3-2-0  |
 Guitar 2 Does this for the whole song so i'll just leave him out

Chorus

Guitar 1   Do You Remember, What Was Promised?
D------------------------------------------------|
A------------------------------------------------|
F------------------------------------------------|    x2
C-5-5-5-5-5-5-6-6-6-6-6-6-1-1-1-1-1-1-2-2-2-2-2-2|
G-5-5-5-5-5-5-6-6-6-6-6-6-1-1-1-1-1-1-2-2-2-2-2-2|
C-5-5-5-5-5-5-6-6-6-6-6-6-1-1-1-1-1-1-2-2-2-2-2-2|

Verse 1

Guitar 1   Can't Turn Back From The Path That You Laid
D--------------------------------------------|
A--------------------------------------------|
F--------------------------------------------|
C-0----0-----3----3-----5----5-----8----8----|
G-0--0-0-0-0-3--3-3-3-3-5--5-5-5-5-8--8-8-8-8|
C-0--0-0-0-0-2--2-2-2-2-4--4-4-4-4-7--7-7-7-7|
                                                     
Guitar 1
D--------------------------------------------|
A--------------------------------------------|
F--------------------------------------------|
C--------------------------------------------|
G------5-0-0-8--------------5-0-0-8----------|
C-0--0---------0-2-3-2-0--0---------0-2-3-2-0|

Guitar 1
D--------------------------------------------|
A--------------------------------------------|
F--------------------------------------------|
C-0----0-----3----3-----5----5-----8----8----|
G-0--0-0-0-0-3--3-3-3-3-5--5-5-5-5-8--8-8-8-8|
C-0--0-0-0-0-2--2-2-2-2-4--4-4-4-4-7--7-7-7-7|

Guitar 1
D-----------------------------------------|
A-----------------------------------------|
F-----------------------------------------|
C-----------------------------------3--3-3|
G------5-0-0-8--------------5-0-0-8-3--3-3|
C-0--0---------0-2-3-2-0--0---------3--3-3|

Verse 2

Guitar 1   This Fragile Thing We Held So Tightly To.
D--------------------------------------------|
A--------------------------------------------|
F--------------------------------------------|
C-3-3-3-3-6-6-6-6-6-6-4-4-4-4-4-4-3-3-3-3-3-3|
G-3-3-3-3------------------------------------|
C-3-3-3-3------------------------------------|

Guitar 1
D----------------------------------|
A----------------------------------|
F----------------------------------|
C-8-8-8-8-8-8-8-6-8-8-8-8-6-8-8-8-8|
G-8-8-8-8-8-8-8-6-8-8-8-8-6-8-8-8-8|
C-8-8-8-8-8-8-8-6-8-8-8-8-6-8-8-8-8|

Guitar 1   Unraveling And Closing In On You.
D--------------------------------------------|
A--------------------------------------------|
F--------------------------------------------|
C-3-3-3-3-6-6-6-6-6-6-8-8-8-8-8-8-7-7-7-7-7-7|
G-3-3-3-3------------------------------------|
C-3-3-3-3------------------------------------|

Guitar 1
D--------------------------------|
A--------------------------------|
F--------------------------------|
C-8-8-8-8-8-8-8-0-6-6-6-6-6-6-6-6|
G-8-8-8-8-8-8-8-0-6-6-6-6-6-6-6-6|
C-8-8-8-8-8-8-8-0-6-6-6-6-6-6-6-6|

Chorus

Guitar 1    Do You Remember, What Was Promised?
D------------------------------------------------|
A------------------------------------------------|
F------------------------------------------------|    x2
C-5-5-5-5-5-5-6-6-6-6-6-6-1-1-1-1-1-1-2-2-2-2-2-2|
G-5-5-5-5-5-5-6-6-6-6-6-6-1-1-1-1-1-1-2-2-2-2-2-2|
C-5-5-5-5-5-5-6-6-6-6-6-6-1-1-1-1-1-1-2-2-2-2-2-2|

Breakdown

Guitar 1  To You, To You 
D------------------------|
A------------------------|
F------------------------|
C-3-3-3-3-3-3-5-5-5-5-5-5|      x2
G-3-3-3-3-3-3-5-5-5-5-5-5|
C-3-3-3-3-3-3-5-5-5-5-5-5|

Solo (My Favorite Part) But Not A 100% Sure Of It

Guitar 1
D---------------------------------------------|
A---------------------------------------------|
F-5/7~~~~-9~~~~-10~~-14~~~~-3~~~~-3-~3-3~~~3-3|
C---------------------------------------------|
G---------------------------------------------|
C---------------------------------------------|

Guitar 1 
D--------------------------------------------|
A---------------------------------------13b~~|
F-5/7~~~7-9~~9-10~~~10-14~~~14-3~~~/18-------|
C--------------------------------------------|
G--------------------------------------------|
C--------------------------------------------|

Guitar 1
D--------------------------------------------|
A-3~~~-3~-3~-3~~-2-1-6-5--6-5-6-5-8-6---5-2~~|
F--------------------------------------------|    x2
C--------------------------------------------|
G--------------------------------------------|
C--------------------------------------------|

Chorus Well the guitar tabs are the same as Chorus

Guitar 1    It's Not Meant To Be. But If There Is A Will, There Is A Way
D------------------------------------------------|
A------------------------------------------------|
F------------------------------------------------|
C-5-5-5-5-5-5-6-6-6-6-6-6-1-1-1-1-1-1-2-2-2-2-2-2|     x2
G-5-5-5-5-5-5-6-6-6-6-6-6-1-1-1-1-1-1-2-2-2-2-2-2|
C-5-5-5-5-5-5-6-6-6-6-6-6-1-1-1-1-1-1-2-2-2-2-2-2|

Breakdown  
                                                       
Guitar 1    For Us All. For Us All                     
D---------------------------|                                      
A---------------------------|                                  
F---------------------------|                                      
C-3-3-3-3-3-3-5-5-5-5-5-5-(0)    x3                   
G-3-3-3-3-3-3-5-5-5-5-5-5-(0)                                    
C-3-3-3-3-3-3-5-5-5-5-5-5-(0)                                       

Ending

Guitar 1
D--------------------------------------------|
A--------------------------------------------|
F--------------------------------------------|
C-0----0-----3----3-----5----5-----8----8----|
G-0--0-0-0-0-3--3-3-3-3-5--5-5-5-5-8--8-8-8-8|
C-0--0-0-0-0-2--2-2-2-2-4--4-4-4-4-7--7-7-7-7|
                                                     x3
Guitar 1
D--------------------------------------------|
A--------------------------------------------|
F--------------------------------------------|
C--------------------------------------------|
G------5-0-0-8--------------5-0-0-8----------|
C-0--0---------0-2-3-2-0--0---------0-2-3-2-0|


Tap to rate this tab
# A B C D E F G H I J K L M N O P Q R S T U V W X Y Z