Song name
# A B C D E F G H I J K L M N O P Q R S T U V W X Y Z

Hour Cast - Freeze tab

Still working on the solo part, and this might not be right, but it sounds pretty close 
to me.

Standard Tuning


  Faded pictures of lives we lived do you remember

-------------------------------------------------------------------|
-------------------------------------------------------------------|
-------------------------------------------------------------------|
-5--5--5--5/7--7--7--7/8--8--8--8/12--12-12------------------------|
-X--X--X--X-X--X--X--X-X--X--X--X-X---X--X--------6----------6-----|
-3--3--3--3/5--5--5--5/6--6--6--6/10--10-10----6----6-----6----6---|
---------------------------------------------4---4----4-4---4----4-|

  One decision left everything frozen in time....    always
------------------------------------------------------------------------|
------------------------------------------------------------------------|
------------------------------------------------------------------------|
--5--5--5--5/7--7--7--7/8--8--8--8/12--12-12----------------------------|
--X--X--X--X-X--X--X--X-X--X--X--X-X---X--X--------7----------6------6--|
--3--3--3--3/5--5--5--5/6--6--6--6/10--10-10----7----7-----6----6----6--|
----------------------------------------------5---5----5-4---4----4--4--|


  Do you remember         What was promised

----------------------------------------------|
----------------------------------------------|
--5--5--5-5--5--5--5--------------------------|
--5--5--5-5--5--5--5------6--6--6-6--6--6--6--|
--3--3--3-3--3--3--3------6--6--6-6--6--6--6--|
--------------------------4--4--4-4--4--4--4--|


       Was  it   destiny     to you


----------------------------------------------|
----------------------------------------------|
----------------------------------------------|
--3--3--3-3--3--3--3------6--6--6-6--6--6--6--|
--3--3--3-3--3--3--3------6--6--6-6--6--6--6--|
--1--1--1-1--1--1--1------4--4--4-4--4--4--4--|


  Was it heaven         You can't see

----------------------------------------------|
----------------------------------------------|
--5--5--5-5--5--5--5--------------------------|
--5--5--5-5--5--5--5------6--6--6-6--6--6--6--|
--3--3--3-3--3--3--3------6--6--6-6--6--6--6--|
--------------------------4--4--4-4--4--4--4--|


       All   invisible    to you


----------------------------------------------|
----------------------------------------------|
----------------------------------------------|
--3--3--3-3--3--3--3------6--6--6-6--6--6--6--|
--3--3--3-3--3--3--3------6--6--6-6--6--6--6--|
--1--1--1-1--1--1--1------4--4--4-4--4--4--4--|
Tap to rate this tab
 
# A B C D E F G H I J K L M N O P Q R S T U V W X Y Z