Song name
# A B C D E F G H I J K L M N O P Q R S T U V W X Y Z

Hour Cast - Lunar tab

Lunar
Hourcast
State Of Disgrace
Droped C
*NOTE* Listen to the song for order and the rhythm of the riffs below.


VERSE
D|---------------------------------------------------------0-------|
A|-------0-----------0-----0-------------0-----------0-------0-----|
F|-----2---2-------2---2-----2---------2---2-------2---2-------2---|
C|---2-------2---2-------2-----2-----2-------2---2-------2-------2-|
G|-0-----------3-----------------3-0-----------3-------------------|
C|-----------------------------------------------------------------|

D|---------------------------------------------------------0-----|
A|-------0-----------0-----0---------------------------------0---|
F|-----2---2-------2---2-----2-----------7-----------5---------5-|
C|---2-------2---2-------2-----2-------5---5-------3---3---------|
G|-0-----------3-----------------3---5-------5---3-------3-------|
C|---------------------------------5-----------3-----------------|


CHORUS
D|-0-------------|
A|-0---6---0-----|
F|-2---5---5---7-|
C|-2---3---5---5-|
G|-0---3---3---5-|
C|-----3-------5-|


BRIDGE
D|----------------------------------|---|
A|----------------------------------|---|
F|---------5---7--------------5---4-|-2-|
C|-2---3---5---7------2---3---5---4-|-2-|
G|-2---3---3---5------2---3---3---2-|-0-|
C|-2---3--------------2---3---------|---|

BRIDGE LEAD (all natural harmonics)
D|-------12*----------5*-------|----|
A|----------12*----------5*----|----|
F|----5*--------------------5*-|----|
C|-4*--------------------------|-4*-|
G|-----------------------------|----|
C|-----------------------------|----|


OUTRO SOLO
D|-------------------------------------------------------------------|
A|-------10b-10b-10b---12-12-12b-12b-12b----12p10----10-12--12p10----|
F|-9b-9b------------------------------------------12--------------12-|
C|-------------------------------------------------------------------|
G|-------------------------------------------------------------------|
C|-------------------------------------------------------------------|

end.
Tap to rate this tab
# A B C D E F G H I J K L M N O P Q R S T U V W X Y Z