Song name
# A B C D E F G H I J K L M N O P Q R S T U V W X Y Z

Hour Of The Wolf - Deaths Coming tab

Help us improve GuitareTab! Take a short survey!
Artist: Hour of the Wolf (www.thehourofthewolf.com)
Track: Death's coming
Tabber: Andrew Biles

There are multiple guitars in this track but I've only tabbed out what can be played on
 Reasonably easy track (probably meaning I've got it completely wrong) to play, so I
someone finds it useful.

The intro was confusing me a little, and playing along with the track I found that if
can't be bothered with all three notes for the couple of chords that it sounds alright
the B note removed.

Eb standard (Eb, Ab, Db, Gb, Bb, eb)

Intro
|----------------------------------------------------------------|
|----------------------------------------------------------------|
|-------------------------------------------12-12-12-12-12-12-12-|
|-9--9--9-9-9-9--9-9--9-9-9-9-9--9--9-9-9-x-x--x--x--x--x--x--x--|
|-7--7--7-7-7-7--7-7--7-7-7-7-7--7--7-7-7-x-10-10-10-10-10-10-10-|
|-------------6--6-6--6-6-6-6-5--5--5-5-5------------------------| x2


Verse
|---------------------------|
|---------------------------|
|---------------------------|
|--------2------------2-----|
|-10-----2-----10-----2-----|
|-8------0-----8------0-----|


|-------------------------------------------------------|
|-------------------------------------------------------|
|-------------------------------------------------------|
|-------------------------------------------------------|
|-10----10-9----x-10----10-9----10-10-10-10-12-12-12-12-|
|-8-----8--7----x-8-----8--7----8--8--8--8--10-10-10-10-|


|----------------------------------------------------------------|
|----------------------------------------------------------------|
|-------------------------------------------12-12-12-12-12-12-12-|
|-9--9--9-9-9-9--9-9--9-9-9-9-9--9--9-9-9-x-x--x--x--x--x--x--x--|
|-7--7--7-7-7-7--7-7--7-7-7-7-7--7--7-7-7-x-10-10-10-10-10-10-10-|
|-------------6--6-6--6-6-6-6-5--5--5-5-5------------------------| x2


|---------------------------|
|---------------------------|
|---------------------------|
|--------2------------2-----|
|-10-----2-----10-----2-----|
|-8------0-----8------0-----|


|-------------------------------------------------------|
|-------------------------------------------------------|
|-------------------------------------------------------|
|-------------------------------------------------------|
|-10----10-9----x-10----10-9----10-10-10-10-12-12-12-12-|
|-8-----8--7----x-8-----8--7----8--8--8--8--10-10-10-10-|


|---------------------------------------------------------------------------------|
|---------------------------------------------------------------------------------|
|---------------------------------------------------------------------------------|
|---------------------------------------------------------------------------------|
|-5-5-5-5-5-5-5-5-7-7-7-7-7-7-7-7-10-10-10-10-10-10-10-10-12-12-12-12-12-12-12-12-|
|-3-3-3-3-3-3-3-3-5-5-5-5-5-5-5-5-8--8--8--8--8--8--8--8--10-10-10-10-10-10-10-10-| x4


|-----------------------------------------------------|
|-----------------------------------------------------|
|-12--9--9-9-9--12^-9---------------------------------|
|-----------------------------------------\/\/\/\/\/--|
|---------------------10--10--10-10-10-9--/\/\/\/\/\--|
|---------------------8---8---8--8--8--7--------------|


|-----------------------------------------------------------    -----|
|-----------------------------------------------------------    -----|
|-----------------------------------------------------------    -----|
|-9--9--9-9-9-9--9-9--9-9-9---------------------------------    -9---|
|-7--7--7-7-7-7--7-7--7-7-7-10--10--10-10-10-9-9-9--9-9-9-9-    -7---|
|---------------------------8---8---8--8--8--7-7-7--7-7-7-7- x5 -----|

__________________
Any questions? andrewbiles[at]hotmail[dot]com
Related for Deaths Coming tab